Oops, an error
Loading. Please wait.

Celebrity Skin Bass Tab

version 2
version 2

Whole song

Interactive

by Hole
1,884 views 9 this week
no commentswrite comment
1 2 3 4 5
please rate
add to favorites
launch autoscroll
font size
0
reset
guitar tuner
Tab Pro tools
  • play this tab
  • loop segment
  • change instrument
  • show fretboard
  • metronome
×
Best way to learn
"Celebrity Skin"
Autoscroll
slow
fast
+/-
esc
set tempo
stop
Contributor
This is the exact way that is it played my the bassist in Hole. I got this from 
the actual sheet music. If a 13 year old can do it so can you!

everything is played with the first finger except when you play the 5's and 4's 
in pattern 1 (you use the 3rd and 2nd finger)

12 not 1&2 14 not 1&4

pattern 1
G|-----------------------------*------------------------------|
D|-----------------------------*------------------------------|
A|---44------------44----------*------------------------------|
E|55----22----0-55----22-02020-*--55-5-9-10-12-14-141414-12-9-|

pattern 2
G|------------------------------------------------|
D|------------------------------------------------|
A|------------------------------------------------|
E|10-10-1010-5-55-55-7-10-10-1010-5-55-555-555-55-|

pattern 3
G|------------------------------------------------|
D|------------------------------------------------|
A|------------------------------------------------|
E|2-2-22-55-7-77-778910101010810-101010101010-----|

pattern 4
G|------------------|
D|------------------|
A|---44-----22-55-4-|
E|55----22-2--------|

pattern 5 10 not 1&0
G|------------------------------------------------|
D|------------------------------------------------|
A|------------------------------------------------|
E|55\101010\8\555\101010\8\555\10101010-0-222-024-|


pattern 6 10 not 1&0 14 not 1&4
G|-----------------------------------------------------|
D|-----------------------------------------------------|
A|-----------------------------------------------------|
E|55\101010\8\555\101010\8\555\10101010-0-22\14-141414-|

pattern 7 10 not 1&0
G|----------------------------------------------------------------------|
D|----------------------------------------------------------------------|
A|---5555----55775----------------------5555----55775----5555--9999-7---|
E|5-5------5-5------55\101010-0-22-0-4-5-5-----5-5----5-5------------9--|


order in which the song is played:
pattern 1
pattern 2
pattern 3
pattern 1 *= insert pattern 4 then finish pattern 1
pattern 2
pattern 3
pattern 5
pattern 6
pattern 7
pattern 1 *= insert pattern 4 then finish pattern 1
pattern 2
pattern 3
pattern 5
pattern 6
pattern 7
pattern 1 *= insert pattern 4 DO NOT FINISH PATTERN 1!!
comments
We did not receive enough feedback on this tab! Please rate:
print report bad tab
1 2 3 4 5
I want to post or [tab]
guest
You may want to rate the tab now too:
select rating
Please do not post tabs as comments. Select "correction" instead!