Oops, an error
Loading. Please wait.

Celebrity Skin Tab

version 2
version 2

Whole song

Interactive

by Hole
2,489 views 6 this week
no commentswrite comment
1 2 3 4 5
please rate
add to favorites
launch autoscroll
font size
0
reset
how to read this tab
guitar tuner
Tab Pro tools
  • play this tab
  • loop segment
  • change instrument
  • show fretboard
  • metronome
×
Best way to learn
"Celebrity Skin"
Autoscroll
slow
fast
+/-
esc
set tempo
stop
celebrity skin - hole.  (tab, chords and Lyrics by Katie Morris)

Verse 1
e]-------------------------------------------------
b]-------------------------------------------------
g]-------------------------------------------------
d]----7---7-------11---11------4---4---------------
a]----7---7-------11---11------4---4---------------
e]----5---5-------9----9-------2---2---------------

                                     oh, make me over
                                     im all i want to be
                                     a walking study
                                     in demonology
chorus
D    A
Hey, so glad you could make it
D     A
Yeah, now you really made it
F#   B                         D
Hey, so glad you could make it now



verse 2
e]-------------------------------------------------
b]-------------------------------------------------
g]-------------------------------------------------
d]----7---7-------11---11------4---4---------------
a]----7---7-------11---11------4---4---------------
e]----5---5-------9----9-------2---2---------------
                                      Oh, look at my face
                                      My name is might have been
                                      My name is never was
                                      My name's forgotten
chorus
D    A
Hey, so glad you could make it
D     A
Yeah, now you really made it
F#   B                    D
Hey, there's only us left now

extra
A      D       A     D
When I wake up in my makeup
A       D      F#
It's too early for that dress
A         D       A                  
Wilted and faded somewhere in 
D
Hollywood
A          D          F#
I'm glad I came here With

your pound of flesh
A         D        A             D
No second billing cause you're a star now
A        D
Oh, Cinderella
F#
They aren't no sluts like you
A          D      A          D
Beautiful garbage beautiful dresses
A        D          F#
Can you stand up or will you

just fall down.

verse 3
e]-------------------------------------------------
b]-------------------------------------------------
g]-------------------------------------------------
d]----7---7-------11---11------4---4---------------
a]----7---7-------11---11------4---4---------------
e]----5---5-------9----9-------2---2---------------
                                     You better watch out 
                                     What you wish for  
                                     It better be worth it 
                                     So much to die for

chorus
D    A
Hey, so glad you could make it
D     A
Yeah, now you really made it
F#   B                    D
Hey, there's only us left now


extra
A      D       A      D
When I wake up in my makeup
A         D         F# 
Have you ever felt so used up as this?
A           D
It's all so sugarless
A       D        A     D
Hooker/waitress/model/actress
F#
Oh, just go nameless
A            D             D
Honeysuckle, she's full of poison
A      D         F#
She obliterated everything she kissed
A         D
Now she's fading
A            D
Somewhere in Hollywood
A          D
I'm glad I came here
F#
With your pound of flesh



verse 4
e]-------------------------------------------------
b]-------------------------------------------------
g]-------------------------------------------------
d]----7---7-------11---11------4---4---------------
a]----7---7-------11---11------4---4---------------
e]----5---5-------9----9-------2---2---------------
                                     You want a part of me  
                                     Well, I'm not selling cheap 
                                     No, I'm not selling cheap 

end of song.
comments
We did not receive enough feedback on this tab! Please rate:
print report bad tab
1 2 3 4 5
I want to post or [tab]
guest
You may want to rate the tab now too:
select rating
Please do not post tabs as comments. Select "correction" instead!