Oops, an error
Loading. Please wait.

Celebrity Skin Tab

version 3
version 3

Whole song

Interactive

by Hole
10,108 views 27 this week
4 commentsread comments
1 2 3 4 5
excellent!
x 9
add to favorites
launch autoscroll
font size
0
reset
how to read this tab
guitar tuner
Autoscroll
slow
fast
+/-
esc
set tempo
stop
Help us to improve Ultimate-Guitar.com Take our survey!
×
Author
Hole Celebrity Skin
Tabbed by Liam 
Email: guitar_rocker_47@hotmail.com
Tuning: Standard
Date: 09/04/06

Im just tabbing this as our band played it at a school production sometime ago, and
its pretty kwl, just bringing back old memories as I listen to it, didn’t really like
it at the time but now its pretty rocking! Enjoy, this is exactly how I played it and
still how I play it, I believe it sounds quite good. If you disagree or agree please
leave comments and rate, thanks, have fun.

Verse 1
E|-------------------------------------------------------------------------|
B|-------------------------------------------------------------------------|
G|-----6-6------------6-6------------6-6------------6-6--------------------|
D|-7-7-6-6-4-4----7-7-6-6-4-4----7-7-6-6-4-4----7-7-6-6-4-4----------------|
A|-7-7-4-4-4-4----7-7-4-4-4-4----7-7-4-4-4-4----7-7-4-4-4-4----------------|
E|-5-5-----2-2----5-5-----2-2----5-5-----2-2----5-5-----2-2--2-2-2-2-2-2-2-|

Chorus
E|------------------------------------------------------------|
B|------------------------------------------------------------|
G|-7-7-7-7-7-7-------------------7-7-7-7-7-7------------------|
D|-7-7-7-7-7-7--7-7-7-7-7-7-7-7--7-7-7-7-7-7--7-7-7-7-7-7-7-7-|
A|-5-5-5-5-5-5--7-7-7-7-7-7-7-7--5-5-5-5-5-5--7-7-7-7-7-7-7-7-|
E|--------------5-5-5-5-5-5-5-5---------------5-5-5-5-5-5-5-5-|

E|-------------------------------------------------------|
B|-------------------------------------------------------|
G|--------------4-4-4-4-4-4-4-4--7-7-7-7-7-7-7-7-7-7-7-7-|
D|-4-4-4-4-4-4--4-4-4-4-4-4-4-4--7-7-7-7-7-7-7-7-7-7-7-7-|
A|-4-4-4-4-4-4--2-2-2-2-2-2-2-2--5-5-5-5-5-5-5-5-5-5-5-5-|
E|-2-2-2-2-2-2-------------------------------------------|

Verse 2
E|-------------------------------------------------------------------------|
B|-------------------------------------------------------------------------|
G|-----6-6------------6-6------------6-6------------6-6--------------------|
D|-7-7-6-6-4-4----7-7-6-6-4-4----7-7-6-6-4-4v---7-7-6-6-4-4----------------|
A|-7-7-4-4-4-4----7-7-4-4-4-4----7-7-4-4-4-4v---7-7-4-4-4-4----------------|
E|-5-5-----2-2----5-5-----2-2----5-5-----2-2v---5-5-----2-2--2-2-2-2-2-2-2-|

Bridge 
E|--------------2------------------2------------------2------------------|
B|-----2----------3-------2----------3-------2----------3----------------| x3
G|-------2----2-------------2----2-------------2----2--------------------| then
D|---2------0-----------2------0-----------2------0------------2b-----2b-| play
A|-0------------------0------------------0-------------------4------4----| that 
E|---------------------------------------------------------2------2------| below

E|--------------2------------------2-----------------2-------------------|
B|-----2----------3-------2----------3------2----------3-----------------|
G|-------2----2-------------2----2------------2----2---------------------|
D|---2------0-----------2------0----------2------0-------4-4-4-4-4-4-4-4-|
A|-0------------------0-----------------0----------------4-4-4-4-4-4-4-4-|
E|-------------------------------------------------------2-2-2-2-2-2-2-2-|

Outro
E|-----------------------------------------------------------|
B|-----------------------------------------------------------|
G|-----6-6------------6-6------------6-6------------6-6------|
D|-7-7-6-6-4-4----7-7-6-6-4-4----7-7-6-6-4-4----7-7-6-6-4--4-|
A|-7-7-4-4-4-4----7-7-4-4-4-4----7-7-4-4-4-4----7-7-4-4-4--4-|
E|-5-5-----2-2----5-5-----2-2----5-5-----2-2----5-5-----2--2-|

Order

Verse 1
Chorus
Verse 2
Chorus
Bridge
Verse 2
Chorus
Bridge 
Outro

Have fun with that, please rate and comment, thanks, bye
Suggest correction
comments
print report bad tab
4 comments total. Showing first comments.
0 reply
jefchenko 10 wrote on February 17 2007, 08:23 pm

Sounds more or less perfect if you ask me, nice and simple too :]
Thanks!

0 reply
wes_jett2008 505 wrote on February 28 2008, 02:56 pm

Looks perfect to me...Good tab

0 reply
Strausser33 10 wrote on June 23 2008, 04:51 am

great tab

guest
You may want to rate the tab now too:
select rating
Wanna post a correction for this tab? Suggest correction