Oops, an error
Loading. Please wait.

Garbage Man Tab

version 1
version 1

Whole song

by Hole
6,152 views 6 this week
1 commentread comment
1 2 3 4 5
x 4
add to favorites
launch autoscroll
font size
0
reset
how to read this tab
guitar tuner
Autoscroll
slow
fast
+/-
esc
set tempo
stop
Help us to improve Ultimate-Guitar.com Take our survey!
×
From: Richard Cooper 
*******************************************************************

Tab for   : GARBAGE MAN
     by   : HOLE

Song no. 3 off the "PRETTY ON THE INSIDE" Album

date      : 15/2/95

tabbed by : RICHARD COOPER
            Kingston University
            England
            (k943707@king.ac.uk)


Came across this completely by mistake while trying to write a chorus
to one of my bands songs.......

This is only my second attempt at tabbing anything so allow for mistakes

I've tried to indicate timing a bit, but you'll still need to listen to the 
song,  quite easy though.

oh yeah, i used tabedit 1.6.3beta by Danny Felsteiner.....thanks Danny!

Feel free to mail me about this tab or just about anything.

oh well, here goes:
                                                                               
E-|---------------------------------------------------------------------------|
B-|---------------------------------------------------------------------------|
G-|---9------9------9\-5--5-5-5-5-5-5-5-5-------------------------------------|
D-|---9------9------9\-5--5-5-5-5-5-5-5-5-------5--------5--5\--2..-stuff-----|
A-|---7------7------7\-3--3-3-3-3-3-3-3-3-------5--------5--5\--2..--i-dont---|
E-|---------------------------------------------3--------3--3\--0..---know----|
      MAIN VERSE                                                               
                                                                               
E-|---------------------------------------------------------------------------|
B-|---------------------------------------------------------------------------|
G-|-7/-9-x-9-x-9-x-9-x...........-x-9-x-9-x-5-5-5-5-5-5-----------------------|
D-|-7/-9-x-9-x-9-x-9-x...........-x-9-x-9-x-5-5-5-5-5-5-----------------------|
A-|-5/-7-x-7-x-7-x-7-x...........-x-7-x-7-x-3-3-3-3-3-3-----------------------|
E-|---------------------------------------------------------------------------|
    "without, without a doubt" riff
Suggest correction
comments
print report bad tab
1 comment total.
+2 reply
MinorThreat91 15 Apr 11, 2007 07:08 PM

Good, but a couple mistakes:

G-|---9------9------9\-5--5-5-5-5-5-5-5-5
D-|---9------9------9\-5--5-5-5-5-5-5-5-5
A-|---7------7------7\-3--3-3-3-3-3-3-3-3

Should be:

G-|--7-9------9------9\-5--5-5-5-5-5-5-5-5
D-|--7-9------9------9\-5--5-5-5-5-5-5-5-5
A-|--5-7------7------7\-3--3-3-3-3-3-3-3-3

You can hear the D power chord played just before it goes up to the E power chord every time.

and:

G-|9-x-9-x-5-5-5-5-5-5-----------------------|
D-|9-x-9-x-5-5-5-5-5-5-----------------------|
A-|7-x-7-x-3-3-3-3-3-3-----------------------|

should be:

G-|9-x-9-x-5-5-5-5-5-5-7-7-------------------|
D-|9-x-9-x-5-5-5-5-5-5-7-7-------------------|
A-|7-x-7-x-3-3-3-3-3-3-9-9-------------------|

Other than that, good tab. :]

guest
You may want to rate the tab now too:
select rating
Wanna post a correction for this tab? Suggest correction