Oops, an error
Loading. Please wait.

Garbage Man ukulele

by Hole
115 views 1 this week
no commentswrite comment
1 2 3 4 5
3 more votes to show rating
add to favorites
×
Save as Personal and add changes to this tab that will be seen only by you. Learn more ›
×
You can save this tab as Personal to edit and correct it or add notes. All changes will be seen only by you. Learn more »
launch autoscroll
font size
0
reset
transpose
0
reset
simplify chords
display chords
guitar tuner
edit
Autoscroll
slow
fast
+/-
esc
set tempo
stop
Difficulty
intermediate
Strumming
There is no strumming pattern for this song yet. and get +5 IQ
-------------------------------------------------------------------------------
                             Garbadge Man by Hole
-------------------------------------------------------------------------------

This is a fairly simple song to play, uses the same chords found in "Violet", actually, just a
different melody and progression. Some palm mutes are
necessary as well as sliding, but it's a good beginner's song and it sounds amazing, especially 
combined with Courtney's lyrics and vocals here. Play heavily distorted.

Tabbed by: Scott H.

"/" = slide up
"\" = slide down
"x" = string mute

Tuning: Standard


Intro:

   D5   E5           C5          G5  Em G5 Em
e|--------------------------------------------------|
B|--------------------------------------------------|
G|-7-/-9-9-9-\-5-5-5-5-5-5-5-5----------------------|
D|-7-/-9-9-9-\-5-5-5-5-5-5-5-5-5-5-5-2-2-5-2-2------|
A|-5-/-7-7-7-\-3-3-3-3-3-3-3-3-5-5-5-2-2-5-2-2------|
E|-----------------------------3-3-3-0-0-3-0-0------|


Main Riff:

   D5   E5           C5          G5   Em   E Em
e|--------------------------------------------------|
B|--------------------------------------------------|
G|-7-/-9-9-9-\-5-5-5-5-5-5-5-5----------------------|
D|-7-/-9-9-9-\-5-5-5-5-5-5-5-5-5-5-5-2-2-2-2-2------|
A|-5-/-7-7-7-\-3-3-3-3-3-3-3-3-5-5-5-2-2-2-2-2------|
E|-----------------------------3-3-3-0-0-0-1-0------|


    She tears the hole up even wider
    Lets all the darkness up inside her
    Holy, old, yeah
    Yeah, you're mine
    Your everything is mine


Chorus:

   D5  E5  D5  E5  D5  E5  D5  E5 C5
e|-------------------------------------------------------|
B|-------------------------------------------------------|
G|-7-/-9-/-7-/-9-/-7-/-9-/-7-/-9-------------------------|
D|-7-/-9-/-7-/-9-/-7-/-9-/-7-/-9--10-x-x-x-x-x-x-x-------|
A|-5-/-7-/-5-/-7-/-5-/-7-/-5-/-7--10-x-x-x-x-x-x-x-------|
E|---------------------------------8-x-x-x-x-x-x-x-------|

   D5  E5  D5  E5  D5  C5
e|-------------------------------------------|
B|-------------------------------------------|
G|-7-/-9-/-7-/-9-/-7-/-5-x-x-x-x-x-x-x-------|
D|-7-/-9-/-7-/-9-/-7-/-5-x-x-x-x-x-x-x-------|
A|-5-/-7-/-5-/-7-/-5-/-3-x-x-x-x-x-x-x-------|
E|-------------------------------------------|
    
    Without, without a doubt
    Without, without a doubt
    Hey, where the fuck were you 
    When my lights went out?



Main Riff
    Yeah, you don't want to look at it now
    Yeah, you don't want to look at it, whoa

Chorus Riff
    Without, without a doubt
    Come on and let me out
    Hey, where the fuck were you 
    When my lights went out?

Main Riff
    Yeah, you don't want to look at it now
    Yeah, you don't want to look at me

Chorus Riff
    Come on and let me out
    Yeah, come on and let me out
    Yeah, tie a soul to you 
    When your light goes down

Main Riff
    Time flies when you're falling down
    I spread my rot all over this town
    And every one of you looks the same
    And every one of you feels the same


Outro:

   Em
e|-----------------------------------------|
B|-----------------------------------------|
G|-----------------------------------------|
D|-2--2--2--2--2--2--2--2--2--2--2--2------|
A|-2--2--2--2--2--2--2--2--2--2--2--2------|
E|-0--0--0--0--0--0--0--0--0--0--0--0------|

            
            
Suggest correction
Creating personal tab
Creating personal tab
You can edit any tab online and save it as your Personal.

You can edit, replace or remove any tab part or add personal notes – all changes will be seen only by you.

Personal tabs can be accessed anytime from any device, even offline.
Learn more »
Give kudos to tab author, rate the tab!
1 2 3 4 5
comments
print report bad tab
guest
Wanna post a correction for this tab? Suggest correction