Oops, an error
Loading. Please wait.

Gutless Tab

version 2
version 2

Whole song

Interactive

by Hole
2,782 views 21 this week
1 commentread comment
1 2 3 4 5
excellent!
x 3
add to favorites
launch autoscroll
font size
0
reset
how to read this tab
guitar tuner
Autoscroll
slow
fast
+/-
esc
set tempo
stop
Help us to improve Ultimate-Guitar.com Take our survey!
×
Author
Difficulty
intermediate
-------------------------------------------------------------------------------
                           Gutless by Hole
-------------------------------------------------------------------------------

From 'Live Through This'. As always, there are two guitars in this one, with Courtney on 
rhythm and Eric on lead. I've watched live performances of it and the main riff and 
chorus are played two different ways between the both of them.

Note: When you play the fourth chord in the main riff (which is an F chord,
1/3/3), you have to upstroke/downstroke really rapidly on the last three strums. Listen
to the song and you can hear it pretty easily. The real difficulty with this song is 
keeping up with the rapid strumming.

Tabbed by: Scott H.
Tuning: Standard


Intro/Main Riff

Guitar 1:
    
   A5    A#5        F5            A5         A5    A#5      F5       G5
e|-----------------------------------------|------------------------------|
B|-----------------------------------------|------------------------------|
G|-----------------------------------------|------------------------------|
D|-7-7-/-8-8--3-3-3-3-3-3-3-3--7-7-7-7-7---|-7-7-/-8-8--3-3-3-3-3-3--5-5--|
A|-7-7-/-8-8--3-3-3-3-3-3-3-3--7-7-7-7-7---|-7-7-/-8-8--3-3-3-3-3-3--5-5--|
E|-5-5-/-6-6--1-1-0-1-1-0-1-1--5-5-0-0-0---|-5-5-/-6-6--1-0-1-1-0-1--3-3--|


Guitar 2:

    A    A#5       F5                         A    A#5      F5          G
e|-----------------------------------------|--------------------------------|
B|-2-2-------------------------------------|-2-2-----------------------3-3--|
G|-2-2---3-3-------------------------------|-2-2---3-3-----------------0-0--|
D|-2-2---3-3--3-3-3-3-3-3-3-3--------------|-2-2---3-3--3-3-3-3-3-3-3--0-0--|
A|-------1-1--3-3-3-3-3-3-3-3--0-0-0-0-0---|-------1-1--3-3-3-3-3-3-3--2-2--|
E|------------1-1-0-1-1-0-1-1--0-0-0-0-0---|------------1-1-0-1-1-0-1--3-3--|



Main Riff

    All my friends are embryonic
    All my friends are dead and gone

    All my friends are microscopic
    All my friends wake up alone

    Girl germs, eat your little virus
    Revolution, come and die

    Elitists who eat the virus
    Sleep with me, wake up alive



Chorus

Guitar 1:
   
   A5       F5       A5       F5       A5       F5       A5 G5 A5  G5 
e|-----------------------------------------------------------------------|
B|-----------------------------------------------------------------------|
G|-----------------------------------------------------------------------|
D|-7-7--3-3-3-3-3-3--7-7--3-3-3-3-3-3--7-7--3-3-3-3-3-3---7--5--7--5-5---|
A|-7-7--3-3-3-3-3-3--7-7--3-3-3-3-3-3--7-7--3-3-3-3-3-3---7--5--7--5-5---|
E|-5-5--1-1-1-1-1-1--5-5--1-1-1-1-1-1--5-5--1-1-1-1-1-1---5--3--5--3-3---|


Guitar 2:

    A       F5        A       F5        A       F5        A  G  A   G
e|-----------------------------------------------------------3-----3-3---|
B|-2-2---------------2-2---------------2-2----------------2--3--2--3-3---|
G|-2-2---------------2-2---------------2-2----------------2--0--2--0-0---|
D|-2-2--3-3-3-3-3-3--2-2--3-3-3-3-3-3--2-2--3-3-3-3-3-3---2--0--2--0-0---|
A|------3-3-3-3-3-3-------3-3-3-3-3-3-------3-3-3-3-3-3------2-----2-2---|
E|------1-1-1-1-1-1-------1-1-1-1-1-1-------1-1-1-1-1-1------3-----3-3---|


    Gutless, you're gutless
    You're gutless, you're gutless


Main

    You can try to suck me dry
    But there's nothing left to suck

    Just you try to hold me down
    Come on, try to shut me up

    Step and fetch, grease my hips
    I don't even have to pause

    I don't really miss God
    But I sure miss Santa Clause


Chorus

    Gutless, you're gutless
    Gutless, you're gutless


Bridge:

e|----------------------------------------------------|
B|-8-8-8-7--------------------------------------------|
G|---------7-7----------------------------------------|
D|------------5-5-5-4-----5-5-5-4---------------------|
A|--------------------5-5---------5-5-4-5-------------|
E|---------------------------------------5-5-5-5-5----|

    I wanna drink the honeyblood
    I wanna drink the honeyblood


Chorus

    Gutless, you're gutless
    Gutless, you're undressed
    You're gutless, you're gutless
    You're gutless, you're undressed
Suggest correction
Give kudos to tab author, rate the tab!
1 2 3 4 5
comments
print report bad tab
1 comment total.
0 reply
LyraMissWorld 10 wrote on January 31 2014, 07:56 pm

How come my fingers hurt when I try to learn the main riff?! Help! But great tab!

guest
You may want to rate the tab now too:
select rating
Please do not post tabs as comments. Select "correction" instead!