Oops, an error
Loading. Please wait.

Plump tab

version 3
version 3

Whole song

Interactive

by Hole
376 views 1 this week
no commentswrite comment
1 2 3 4 5
2 more votes to show rating
add to favorites
×
Save as Personal and add changes to this tab that will be seen only by you. Learn more ›
×
You can save this tab as Personal to edit and correct it or add notes. All changes will be seen only by you. Learn more »
launch autoscroll
font size
0
reset
how to read this tab
guitar tuner
edit
Autoscroll
slow
fast
+/-
esc
set tempo
stop
-------------------------------------------------------------------------------
                             Plump by Hole
-------------------------------------------------------------------------------

Rock onnnnn. So I think that the last tab on here is 99% correct, it's just missing one
wee-little chord, so I'm going to add that in and build onto what's already been said,
but I think this one is in the bag. It's really, really easy to play if you can keep up 
with the speed.

Tabbed by: Scott H.

Tuning: Standard


Riff A (Intro/Verse):

e|---------------------------------------|
B|-------------------------22------------|
G|-------------------------22------------|
D|-44-4444-44-4444-44-2222-22-22---------|
A|-44-4444-44-4444-44-2222----22---------|
E|-22-0000-22-0000-22-0000----11---------|


Riff A x 2


Riff A
    He shakes his dead rattle

Riff A
    Spittle on his bib

Riff A
    And I don't do the dishes

Riff A
    I throw them in the crib


Riff B (Chorus):

e|--------------|
B|--------------|
G|--99\777------|
D|--99\777------|
A|--77\555------|
E|--------------|


Riff B x 1


Riff B
    I'm eating you

Riff B
    I'm overfed

Riff B
    Your milk's in my mouth

Riff B
    It makes me sick

Riff A x 1

Riff A
    And I've stumbled here

Riff A
    Failed to make it mine

Riff A
    They say I'm plump

Riff A
    But I threw up all the time

Riff B
    I'm eating you

Riff B
    I'm overfed

Riff B
    Your milk's in my mouth

Riff B
    It makes me sick


Riff C (Verse II):

e|------------------------------|
B|------------------------------|
G|------------------------------|
D|-44-4444-44-4444-7777---------|
A|-44-4444-44-4444-7777---------|
E|-22-0000-22-0000-5555---------|


Riff C x 1


Riff D (Bridge):

e|---------------------|
B|---------------------|
G|---------------------|
D|---------------------|
A|--2222222------------|
E|--------333333232----|

Riff D x 2


Riff D
    Do you fake it for me like I...

Riff D
    Do you fake it for me like I...

Riff D
    Do you fake it for me like I...

Riff A x 2

Riff A
    My baby's in her arms

Riff A
    Crawlin' up her legs

Riff A
    Like a liar at a witch trial

Riff A
    You look good for your age

Riff B
    I'm eating you

Riff B
    I'm overfed

Riff B
    Your milk's in my mouth

Riff B
    It makes me sick

            
            
Suggest correction
Creating personal tab
Creating personal tab
You can edit any tab online and save it as your Personal.

You can edit, replace or remove any tab part or add personal notes – all changes will be seen only by you.

Personal tabs can be accessed anytime from any device, even offline.
Learn more »
Give kudos to tab author, rate the tab!
1 2 3 4 5
comments
print report bad tab
guest
You may want to rate the tab now too:
select rating
Wanna post a correction for this tab? Suggest correction