Oops, an error
Loading. Please wait.

Skinny Little Bitch Bass

by Hole
58 views 3 this week
1 commentread comment
1 2 3 4 5
3 more votes to show rating
add to favorites
launch autoscroll
font size
0
reset
guitar tuner
×
Best way to learn
"Skinny Little Bitch"
Autoscroll
slow
fast
+/-
esc
set tempo
stop
Author
Difficulty
novice
About this tab version
Play along with the track for timing, as as it speeds up in the outro. Effects are used on the studio version. Link to the song: https://www.youtube.com/watch?v=FbOmwSPoR-E. Was this info helpful? Yes No
[Verse]

G|--------------------------------|
D|------------------------6-7-7---|
A|--------------------------------|x8
E|----2-2-0-2-2-0-2-2-0-2---------|

[Chorus 1]

G|-----------------------------------|
D|-----------------------------------|
A|-----------------------------------|x3
E|-2-2-2-2-0-0-0-0-7-7-7-7-2-2-2-2---|

G|----------------------------------------------|
D|----------------------------------------------|
A|----------------------------------------------|
E|-0-0-0-0-0-0-0-0-0-/12-12-12-12-12-12-12-12---|

G|----------------------------------------------|
D|------------------------6-7-7-----------------|
A|----------------------------------------------|
E|----2-2-0-2-2-0-2-2-0-2-------2-2-0-2-2-0-2---|

[Verse]

G|--------------------------------|
D|------------------------6-7-7---|
A|--------------------------------|x8
E|----2-2-0-2-2-0-2-2-0-2---------|

[Chorus 2]

G|-----------------------------------|
D|-----------------------------------|
A|-----------------------------------|x3
E|-2-2-2-2-0-0-0-0-7-7-7-7-2-2-2-2---|

G|----------------------------------------------|
D|----------------------------------------------|
A|----------------------------------------------|
E|-0-0-0-0-0-0-0-0-0-/12-12-12-12-12-12-12-12---|

G|----------------------------------------------------|
D|------------------------6-7-7---------------6-7-7---|
A|----------------------------------------------------|
E|----2-2-0-2-2-0-2-2-0-2-------2-2-0-2-2-0-2---------|

[Bridge]

G|---------------------------------------------------------------------|
D|---------------------------------------------------------------------|
A|---------------------------------------------------------------------|x2
E|-7-7-7-7-7-7-7-7-7-7-7-7-7-7-7-7-9-9-9-9-9-9-9-9-9-9-9-9-9-9-9-9-9---|

[Repeat Chorus 2]

G|-----------------------------------|
D|-----------------------------------|
A|-----------------------------------|x3
E|-2-2-2-2-0-0-0-0-7-7-7-7-2-2-2-2---|

G|----------------------------------------------|
D|----------------------------------------------|
A|----------------------------------------------|
E|-0-0-0-0-0-0-0-0-0-/12-12-12-12-12-12-12-12---|

G|----------------------------------------------------|
D|------------------------6-7-7---------------6-7-7---|
A|----------------------------------------------------|
E|----2-2-0-2-2-0-2-2-0-2-------2-2-0-2-2-0-2---------|

[Outro]

G|--------------------------------|
D|------------------------6-7-7---|
A|--------------------------------|x10
E|----2-2-0-2-2-0-2-2-0-2---------|

G|--------------------------------|
D|--------------------------------|
A|--------------------------------|
E|-2~~~~~~~~~~~~~~~~-2------------|


************************************

| /   Slide up
| \   Slide down
| ~   Vibrato

************************************
Suggest correction
Give kudos to tab author, rate the tab!
1 2 3 4 5
comments
print report bad tab
1 comment total.
0 reply
Rinny03 10 Mar 31, 2017 01:29 AM

👍

guest
You may want to rate the tab now too:
select rating
Wanna post a correction for this tab? Suggest correction