Oops, an error
Loading. Please wait.

Skinny Little Bitch tab

version 2
version 2

Whole song

by Hole
6,046 views 6 this week
1 commentread comment
1 2 3 4 5
x 6
add to favorites
×
Save as Personal and add changes to this tab that will be seen only by you. Learn more ›
×
You can save this tab as Personal to edit and correct it or add notes. All changes will be seen only by you. Learn more »
launch autoscroll
font size
0
reset
how to read this tab
guitar tuner
edit
Autoscroll
slow
fast
+/-
esc
set tempo
stop
Author
Difficulty
-------------------------------------------------------------------------------
                             SKINNY LITTLE BITCH - Hole
-------------------------------------------------------------------------------
Tabbed by: Vlad V.
Email: vlad1990v@yahoo.com

Tuning: D Tuning

Note: If you want to, you can adapt this tab so that you can play the song in standard
tuning. However, this is how I play it and I think it's pretty accurate. Enjoy!

Main riff(0:02 - 0:32)

d--------------------------------------------------------------------------|
A--------------------------------------------------------------------------|
F--------------------------------------------------------------------------|
C---6---6-4-6--6-4-6--6-4-6/999--------------------------------------------| x8
G---6---6-4-6--6-4-6--6-4-6/999--------------------------------------------|
D---4---4-4-4--4-4-4--4-4-4/777--------------------------------------------|

Chorus(0:32 - 0:47)

d--------------------------------------------------------------------------|
A--------------------------------------------------------------------------|
F--------------------------------------------------------------------------|
C---6-6--44--44/101010--4/666----------------------------------------------| x3     then
G---6-6--44--44/101010--4/666----------------------------------------------|
D---4-4--22--22/8-8-8---2/444----------------------------------------------|

d--------------------------------------------------------------------------|
A--------------------------------------------------------------------------|
F--------------------------------------------------------------------------|
C---4--44444444444444------------------------------------------------------|
G---4--44444444444444------------------------------------------------------|
D---2--22222222222222------------------------------------------------------|

Main riff(0:48 - 0:54)

d--------------------------------------------------------------------------|
A--------------------------------------------------------------------------|
F--------------------------------------------------------------------------|
C---6---6-4-6--6-4-6--6-4-6/999----6---6-4-6--6-4-6x-----------------------|
G---6---6-4-6--6-4-6--6-4-6/999----6---6-4-6--6-4-6x-----------------------|
D---4---4-4-4--4-4-4--4-4-4/777----4---4-4-4--4-4-4x-----------------------|

Bass fill(0:55 - 1:10) - listen to the song for the timing!

d--------------------------------------------------------------------------|
A---7~~~----------------------7~~~-----------------------------------------|
F--------------------------------------------------------------------------|
C-----------------------------------------------------999------------------|
G-----------------------------------------------------999------------------|
D-----------------------------------------------------777------------------|

Main riff(1:11 - 1:25)

d--------------------------------------------------------------------------|
A--------------------------------------------------------------------------|
F--------------------------------------------------------------------------|
C---6---6-4-6--6-4-6--6-4-6/999--------------------------------------------| x4
G---6---6-4-6--6-4-6--6-4-6/999--------------------------------------------|
D---4---4-4-4--4-4-4--4-4-4/777--------------------------------------------|

Chorus(1:26 - 1:41)

d--------------------------------------------------------------------------|
A--------------------------------------------------------------------------|
F--------------------------------------------------------------------------|
C---6-6--44--44/101010--4/666----------------------------------------------| x3     then
G---6-6--44--44/101010--4/666----------------------------------------------|
D---4-4--22--22/8-8-8---2/444----------------------------------------------|

d--------------------------------------------------------------------------|
A--------------------------------------------------------------------------|
F--------------------------------------------------------------------------|
C---4--44444444444444------------------------------------------------------|
G---4--44444444444444------------------------------------------------------|
D---2--22222222222222------------------------------------------------------|

Main riff(1:41 - 1:48)

d--------------------------------------------------------------------------|
A--------------------------------------------------------------------------|
F--------------------------------------------------------------------------|
C---6---6-4-6--6-4-6--6-4-6/999--------------------------------------------| x2
G---6---6-4-6--6-4-6--6-4-6/999--------------------------------------------|
D---4---4-4-4--4-4-4--4-4-4/777--------------------------------------------|

Bridge(1:49 - 2:03)

Rhythm guitar plays:
   |x16|      |x16| |x16|        |x8| |x8|
d--------------------------------------------------------------------------|
A--------------------------------------------------------------------------|
F--------------------------------------------------------------------------|
C---4-----4/6---6-----4-----4/6---6----9-----------------------------------|
G---4-----4/6---6-----4-----4/6---6----9-----------------------------------|
D---2-----2/4---4-----2-----2/4---4----7-----------------------------------|

Lead guitar plays:
   |x16|        |x12|           |x16|        |x8|
d--------------------------------------------------------------------------|
A----------------------14141414--------------------14/16-19b1619b161919b16~|
F---11----11/13--13----13131313--11----11/13--13---------------------------|
C--------------------------------------------------------------------------|
G--------------------------------------------------------------------------|
D--------------------------------------------------------------------------|

Chorus(2:04 - 2:18)

d--------------------------------------------------------------------------|
A--------------------------------------------------------------------------|
F--------------------------------------------------------------------------|
C---6-6--44--44/101010--4/666----------------------------------------------| x3     then
G---6-6--44--44/101010--4/666----------------------------------------------|
D---4-4--22--22/8-8-8---2/444----------------------------------------------|

d--------------------------------------------------------------------------|
A--------------------------------------------------------------------------|
F--------------------------------------------------------------------------|
C---4--44444444444444------------------------------------------------------|
G---4--44444444444444------------------------------------------------------|
D---2--22222222222222------------------------------------------------------|

Main riff(2:19 - 3:02) - there is a gradual rise in tempo, listen to the song to get it right!

d--------------------------------------------------------------------------|
A--------------------------------------------------------------------------|
F--------------------------------------------------------------------------|
C---6---6-4-6--6-4-6--6-4-6/999--------------------------------------------| x13
G---6---6-4-6--6-4-6--6-4-6/999--------------------------------------------|
D---4---4-4-4--4-4-4--4-4-4/777--------------------------------------------|

Ending(3:02 - 3:08) - bend the whole chord, release it slowly and finally let it ring 
and slide out!

d--------------------------------------------------------------------------|
A--------------------------------------------------------------------------|
F--------------------------------------------------------------------------|
C---6b---6\----------------------------------------------------------------|
G---6b---6\----------------------------------------------------------------|
D---4b---4\----------------------------------------------------------------|

************************************

| /   slide up
| \   slide down
| h   hammer-on
| p   pull-off
| ~   vibrato
| +   harmonic
| x   Mute note
| b   Bend
| pb  Pre-bend
| br  Bend release
| pbr Pre-bend release
| brb Bend release bend

************************************

            
            
Suggest correction
Creating personal tab
Creating personal tab
You can edit any tab online and save it as your Personal.

You can edit, replace or remove any tab part or add personal notes – all changes will be seen only by you.

Personal tabs can be accessed anytime from any device, even offline.
Learn more »
comments
print report bad tab
1 comment total.
+1 reply
magickmidget 292 Jun 01, 2010 03:11 AM

Technically a good tab but it's Hole, man - standard tuning, all the chords are back a step.

guest
You may want to rate the tab now too:
select rating
Wanna post a correction for this tab? Suggest correction