Oops, an error
Loading. Please wait.

Skinny Little Bitch tab

version 3
version 3

Whole song

by Hole
348 views 9 this week
2 commentsread comments
1 2 3 4 5
1 last vote to show rating
add to favorites
×
Save as Personal and add changes to this tab that will be seen only by you. Learn more ›
×
You can save this tab as Personal to edit and correct it or add notes. All changes will be seen only by you. Learn more »
launch autoscroll
font size
0
reset
how to read this tab
guitar tuner
edit
Autoscroll
slow
fast
+/-
esc
set tempo
stop
Author
Hole - Skinny Little Bitch (Nobody's Daughter Album)


Standard Tuning




MAIN RIFF

e- ----------------------------------------------------|
B- ----------------------------------------------------|
G- ----------------------------------------------------|
D- -4--4(4)-4--4(4)-4--4(4)-4-7------------------------|
A- -4--4-0--4--4-0--4--4-0--4-7-x3---------------------|
E- -2--2-0--2--2-0--2--2-0--2-5------------------------|



CHORUS

e- ----------------------------------------------------|
B- ----------------------------------------------------|
G- ---------------4--4---------------------------------|
D- -4--4-4-2--2-2-4--4---4--4--------------------------| x3
A- -4--4-4-2--2-2-2--2-0-4--4-0------------------------|
E- -2--2-2-0--0-0------0-2--2-0------------------------|

e- ------------------------------------------------------|
B- ------------------------------------------------------|
G- ------------------------------------------------------|
D- -2----------------------------------------------------|
A- -2-x16------------------------------------------------|
E- -0----------------------------------------------------|



VERSE (bass part)

e- -0---------------0----------------------------------|
B- -0---------------0----------------------------------|
G- -3~--------------3~---------------------------------|
D- -4~--------------4~---------7-----------------------|
A- -4~--------------4~---------7-x3--------------------|
E- -2~--------------2~---------5-----------------------|




SOLO

 Rhythm Guitar

e- ----------------------------------------------------|
B- ----------------------------------------------------|
G- -4-----4/6-6-----4-----4/6-6----9-------------------|
D- -4-x16-4/6-6-x16-4-x16-4/6-6-x8-9-x8----------------|
A- -2-----2/4-4-----2-----2/4-4----7-------------------|
E- ----------------------------------------------------|

 Lead Guitar

e- -------------------------------------------------------------------------|
B- --------------------  14141414--------------------14^17-14^17-14~~-------|
G- -11-x16-11/13--13-x12-13131313--11-X16-11/13-13-X8-----------------------|
D- -------------------------------------------------------------------------|
A- -------------------------------------------------------------------------|
E- -------------------------------------------------------------------------|




ENDING

 Rhythm Guitar

just play MAIN RIFF, but keep getting faster


 Lead Guitar (at some point)

e- ----------------------------------------------------|
B- -14----12~~-14--------------------------------------|
G- -13-x?-11~~-13-x?-----------------------------------|
D- ----------------------------------------------------|
A- ----------------------------------------------------|
E- ----------------------------------------------------|


END

 Rhythm Guitar

e- ----------------------------------------------------|
B- ----------------------------------------------------|
G- ----------------------------------------------------|
D- -4^------4------------------------------------------|
A- -4^------4------------------------------------------|
E- -2^------2------------------------------------------|

 Lead Guitar

e- ----------------------------------------------------|
B- -12^------------------------------------------------|
G- -11^------------------------------------------------|
D- ---------4------------------------------------------|
A- ---------4------------------------------------------|
E- ---------2------------------------------------------|

            
            
Suggest correction
Creating personal tab
Creating personal tab
You can edit any tab online and save it as your Personal.

You can edit, replace or remove any tab part or add personal notes – all changes will be seen only by you.

Personal tabs can be accessed anytime from any device, even offline.
Learn more »
Give kudos to tab author, rate the tab!
1 2 3 4 5
comments
print report bad tab
2 comments total.
0 reply
luancf 591 Oct 08, 2013 03:14 PM

MAIN RIFF

e- ----------------------------------------------------|
B- ----------------------------------------------------|
G- ---------------------------2------------------------|
D- -4--4--2-4--4--2-4--4--2-4-2-x4---------------------|
A- -4--4--2-4--4--2-4--4--2-4-0------------------------|
E- -2--2--0-2--2--0-2--2--0-2--------------------------|

0 reply
luancf 591 Jul 12, 2014 12:12 PM

ignore the above correction

guest
You may want to rate the tab now too:
select rating
Wanna post a correction for this tab? Suggest correction