Oops, an error
Loading. Please wait.

Softer Softest bass

version 2
version 2

Whole song

Interactive

by Hole
423 views 1 this week
no commentswrite comment
1 2 3 4 5
3 more votes to show rating
add to favorites
×
Save as Personal and add changes to this tab that will be seen only by you. Learn more ›
×
You can save this tab as Personal to edit and correct it or add notes. All changes will be seen only by you. Learn more »
launch autoscroll
font size
0
reset
guitar tuner
edit
Autoscroll
slow
fast
+/-
esc
set tempo
stop
Author
Difficulty
Softer Softest by Hole
Album: Live Through This


     I Tell You Everything,    I Hope That You Won't Tell On Me

----------------------------------------------------------------------------|
----------------------------------------------------------------------------|
----------------------------------------------------------------------------|
0--3--------0--3----------0--3----------0--3--------------0--3--5-5-5-5-5---|

     I'd Give You Anything,    I Know That You Won't Tell on Me

---------------------------------------------------------------------------|
---------------------------------------------------------------------------|
---------------------------------------------------------------------------|
0--3------------0--3------0--3-----------0--3----------------5-5-5-5-5-5---|

     P. Girl Gets the Belt         Your Milk Makes Me ????

--------------------------------------------------------------------|
--------------------------------------------------------------------|
--------------3-3----------------------------3--3-------------------|
----5--5--------------3--3--3--3--0-5--5--------------3--3----------|

     Your Milk Is So Sour          And I Can Only Cower

--------------------------------------------------------------------|
--------------------------------------------------------------------|
--------------3--3---------------------------3--3-------------------|
-----5---5-----------3--3--3--3--3--0--5--5--------3-3-3-3----------|

     And I Can Only Cower          And I Can Only Cower

--------------------------------------------------------------------|
--------------------------------------------------------------------|
---------------3--3--------------------------3--3-------------------|
--------5-5----------3-3-3-3-3-3-3-0---5--5--------3-3-3-3----------|

     You Have All the Power

----------------------------------|
----------------------------------|
------------3---------------------|
-----5---------------3-3-3-3------|

(The next verse is the same just different lyrics)

Burn the Witch, The Witch is Dead

--------------------------------------------------------------------|
--------------------------------------------------------------------|
--(NO BASS)---------------------------------------------------------|
--------------------------------------------------------------------|

Burn the Witch, Just Bring Me Back Her Head

--------------------------------------------------------------------|
-(NO BASS)----------------------------------------------------------|
--------------------------------------------------------------------|
---------------------3-3-3-3-3-3-3-3-3-3-3-3-3-3-3-3----------------|

            
            
Suggest correction
Creating personal tab
Creating personal tab
You can edit any tab online and save it as your Personal.

You can edit, replace or remove any tab part or add personal notes – all changes will be seen only by you.

Personal tabs can be accessed anytime from any device, even offline.
Learn more »
Give kudos to tab author, rate the tab!
1 2 3 4 5
comments
print report bad tab
guest
You may want to rate the tab now too:
select rating
Wanna post a correction for this tab? Suggest correction