Oops, an error
Loading. Please wait.

Softer Softest bass

version 3
version 3

Whole song

Interactive

by Hole
410 views 1 this week
no commentswrite comment
1 2 3 4 5
3 more votes to show rating
add to favorites
×
Save as Personal and add changes to this tab that will be seen only by you. Learn more ›
×
You can save this tab as Personal to edit and correct it or add notes. All changes will be seen only by you. Learn more »
launch autoscroll
font size
0
reset
guitar tuner
edit
Autoscroll
slow
fast
+/-
esc
set tempo
stop
Author
Difficulty
-------------------------------------------------------------------------------
			  SOFTER, SOFTEST - Hole
-------------------------------------------------------------------------------

Tabbed By : 
e-mail: cjohnson2492@gmail.com 

Tuning: EADG

G|---------------------------------------------------------------------------|
D|---------------------------------------------------------------------------|
A|-------------------------------------------------------------3-------------|
E|-3----------------------3-3-0-3--------------------------------3--3-3-0-3--|
    I tell you everything        I know that you won't tell on me
G|---------------------------------------------------------------------------|
D|---------------------------------------------------------------------------|
A|---------------------------------------------------------------3-----------|
E|-3-3-0-3-----------------------3-3-0-3---------------------------3---------|
          And I give you anything       I hope you won't tell on me
G|---------------------------------------------------------------------------|
D|---------------------------------------------------------------------------|
A|----0--------3--------------0---------3-------------0----------3-----------|
E|----------------------3------------------------3--------------------3------|
  The pee girl gets the belt  Your milk makes me my--  Your milk is so sour
G|---------------------------------------------------------------------------|
D|---------------------------------------------------------------------------|
A|----0-----3--------------0-----3--------------0-----3----------0--------3--|
E|---------------3--------------------3--------------------3-----------------|
  And I can only cry--  And I can only cower  And I can only cry-- You have
G|---------------------------------------------------------------------------|
D|---------------------------------------------------------------------------|
A|---------------------------------------------------------------------------|
E|------3-----3-3-3-3-0-3-3-3-0-3------------------------3-3-0-3-------------|
all the power                    And I got a blister from        Touchin'
G|---------------------------------------------------------------------------|
D|---------------------------------------------------------------------------|
A|-------------3-------------------------------------------------------------|
E|-----------3---3-3-0-3-3-3-0-3------------------3-3-0-3--------------------|
  everything I see              The abyss opens up       It steals everything
G|---------------------------------------------------------------------------|
D|---------------------------------------------------------------------------|
A|-------3-----0--------3--------------0------------------------0------------|
E|-----3-------------------------3---------------3--------3---------------3--|
  from me  The pee girl gets the belt  Your milk makes me my--  Your milk is
G|---------------------------------------------------------------------------|
D|---------------------------------------------------------------------------|
A|---------0---------3-----------0---------3-----------0---------3-----------|
E|---3---------------------3---------------------3---------------------3-----|
  so sick  Your milk has a di--  Your milk has a dick  Your milk has a di--
G|---------------------------------------------------------------------------|
D|---------------------------------------------------------------------------|
A|0---------3----------------------------5--------3--------------------------|
E|----------------3---3-3-3-3-0-3-3-3-0----------------------3--------3------|
  Your milk has a dick                   Burn the witch  The witch is dead
G|---------------------------------------------------------------------------|
D|---------------------------------------------------------------------------|
A|---------5--------3------------------------------------0--------3----------|
E|-3-3-3-0----------------------3-----------------3--------------------------|
           Burn the witch  Just bring me back her head   Pee girl gets the
G|---------------------------------------------------------------------------|
D|---------------------------------------------------------------------------|
A|-------------------------------0---------3-----------0---------3-----------|
E|3----------------------------------------------3---------------------------|
  belt  Your milk makes me my--  Your milk is so mean  Your milk turns to
G|---------------------------------------------------------------------------|
D|---------------------------------------------------------------------------|
A|-------0---------3---------------------------------------------------------|
E|3-------------------------3------------------------------------------------|
  cry--  Your milk turns to cream (Repeat cry/cream four times)

===============================================================================

            
            
Suggest correction
Creating personal tab
Creating personal tab
You can edit any tab online and save it as your Personal.

You can edit, replace or remove any tab part or add personal notes – all changes will be seen only by you.

Personal tabs can be accessed anytime from any device, even offline.
Learn more »
Give kudos to tab author, rate the tab!
1 2 3 4 5
comments
print report bad tab
guest
You may want to rate the tab now too:
select rating
Wanna post a correction for this tab? Suggest correction