Oops, an error
Loading. Please wait.

The Void tab

by Hole
669 views 1 this week
no commentswrite comment
1 2 3 4 5
2 more votes to show rating
add to favorites
×
Save as Personal and add changes to this tab that will be seen only by you. Learn more ›
×
You can save this tab as Personal to edit and correct it or add notes. All changes will be seen only by you. Learn more »
launch autoscroll
font size
0
reset
how to read this tab
guitar tuner
edit
Autoscroll
slow
fast
+/-
esc
set tempo
stop
Author
Difficulty
-------------------------------------------------------------------------------
                             The Void by Hole
-------------------------------------------------------------------------------

Tabbed by: Scott

From their 1994 "Doll Parts" single, covering The Raincoats.


Tuning: Standard


Intro:
e|-------------------------------------------------------------------------|
B|--8/10-10-10-10-10--12-12-12-12-12--8/10-10-10-10-10--12-12-12-12-14-14--|
G|--9/11-11-11-11-11--12-12-12-12-12--9/11-11-11-11-11--12-12-12-12-14-14--|
D|--0--0--0--0--0--0---0--0--0--0--0--0--0--0--0--0--0---0--0--0--0--0--0--|
A|-------------------------------------------------------------------------|
E|-------------------------------------------------------------------------|

e|-000000-222h3222---000000-222h3222--------|
B|-000000-33333333---000000-33333333--------|
G|-000000-22222222---000000-22222222--------|
D|-222222-00000000---222222-00000000--------|
A|-222222-00000000---222222-00000000--------|
E|------------------------------------------|


Verse:
e|-000000000000--22222222222h32222------|
B|-000000000000--33333333333333333------|
G|-000000000000--22222222222222222------|
D|-222222222222--00000000000000000------|
A|-222222222222--00000000000000000------|
E|--------------------------------------|

   When I looked at the street                    
   You know, and when it was talking to me
   When I looked at the street           
   You know, and when it was talking to me


Chorus:
e|-222222222222--00000000000000000------|
B|-333333333333--22222222222222222------|
G|-222222222222--22222222222222222------|
D|-000000000000--22222222222222222------|
A|-000000000000--00000000000000000------|
E|--------------------------------------|

   The void
   (When I fill the void)
   The void
   (When I fill the void)
   The void
   (When I fill the void)


[A chord]
   I see into your revolution
   What's a revolution?
   Can we please wake up now?


Chorus:

   One, two, three
   (Three, two one)
   One, two three
   (Three, two one...)


[Em chord]
   And when, yeah, when, yeah


Bridge (x 4):
e|--------------------------------------|
B|-----8/10-10-10-10--12-12-12-12-------|
G|-----9/11-11-11-11--12-12-12-12-------|
D|-----0/-0--0--0--0---0--0--0--0-------|
A|--------------------------------------|
E|--------------------------------------|


Solo (x 2):
e|--------------------------------------------------|
B|------8-7-8-7-----------------8-7-8-7-------------|
G|--7-9---------7-6-7-6-7---7-9---------6-7b-7------|
D|--------------------------------------------------|
A|--------------------------------------------------|
E|--------------------------------------------------|


Verse:
    
    When I looked at the void        
    You know, and when it was talking to me     
    When I looked at the void          
    You know, and when it was talking to me



Chorus:

   The void
   (When I fill the void)
   The void
   (When I fill the void)
   The void
   (When I fill the void)
   The void

            
            
Suggest correction
Creating personal tab
Creating personal tab
You can edit any tab online and save it as your Personal.

You can edit, replace or remove any tab part or add personal notes – all changes will be seen only by you.

Personal tabs can be accessed anytime from any device, even offline.
Learn more »
Give kudos to tab author, rate the tab!
1 2 3 4 5
comments
print report bad tab
guest
You may want to rate the tab now too:
select rating
Wanna post a correction for this tab? Suggest correction