Oops, an error
Loading. Please wait.

Violet bass

version 2
version 2

Whole song

Interactive

by Hole
5,263 views 15 this week
no commentswrite comment
1 2 3 4 5
x 6
add to favorites
×
Save as Personal and add changes to this tab that will be seen only by you. Learn more ›
×
You can save this tab as Personal to edit and correct it or add notes. All changes will be seen only by you. Learn more »
launch autoscroll
font size
0
reset
guitar tuner
edit
Autoscroll
slow
fast
+/-
esc
set tempo
stop
Author
-------------------------------------------------------------------------------
                             VIOLET - Hole
-------------------------------------------------------------------------------
Tabbed by: DPL
E-mail: nizibian@gmail.com

Tuning: EADG

Verse Pick-Up
G|---------------------------------------|
D|---------------------------------------|
A|---------------------------------------|
E|--3-33-333-3-33-333--------------------|

Verse
G|---------------------------------------|
D|---------------------------------------|
A|--7777-77-3333-33----------------------|
E|------------------3333-33-3333-33------|

Pre-Pre-Chorus
G|---------------------------------------|
D|---------------------------------------|
A|---------------------------------------|
E|--0-00-000-1-11-111-3-33-333-3-33-333--|

Pre-Chorus Pick-Up
G|---------------------------------------|
D|---------------------------------------|
A|---------------------------------------|
E|--0------------------------------------|

Pre-Chorus
G|---------------------------------------|
D|---------------------------------------|
A|--7-7-7-3-3-3-5-5-5--------------------|
E|--------------------5-5-5--------------|

Chorus
G|---------------------------------------|
D|---------------------------------------| 
A|--7-77-777-3-33-333-5-55-555-----------|
E|-----------------------------5-55-555--|

Bridge
G|---------------------------------------|
D|---------------------------------------|
A|---------------------------------------|
E|--0--------------------------0-0-0-----|

End
G|---------------------------------------|
D|---------------------------------------|
A|---------------------------------------|
E|--0------------------------------------|

Song order:
Verse Pick-Up x1 (start right before "And the sky was made of amethyst")
Verse x3 
Pre-Pre-Chorus x4 (start right after "You should learn how to say no")
Pre-Chorus Pick-Up x1 (strike and let ring at first "Get")
Pre-Chorus x1 (start playing at second "Get")
Chorus x2 ("Go on take everything")
Verse Pick-Up x1 (start right before "And the sky was all violet")
Verse x3
Pre-Pre-Chorus x4 (start right after "One above and one below")
Pre-Chorus Pick-Up x1 (strike and let ring at first "Get")
Pre-Chorus x1 (start playing at second "Get")
Chorus x2 ("Go on take everything")
Pre-Chorus x2 (start right after chorus)
Chorus x2 ("Go on take everything")
Bridge x1 (strike first note and let ring at beginning, then play the next three 
notes along with the drums)
Chorus x4 ("Go on take everything")
End x1 (strike with very last "everything")

            
            
Suggest correction
Creating personal tab
Creating personal tab
You can edit any tab online and save it as your Personal.

You can edit, replace or remove any tab part or add personal notes – all changes will be seen only by you.

Personal tabs can be accessed anytime from any device, even offline.
Learn more »
comments
print report bad tab
guest
You may want to rate the tab now too:
select rating
Wanna post a correction for this tab? Suggest correction