Oops, an error
Loading. Please wait.

Violet tab

version 2
version 2

Whole song

Interactive

by Hole
6,232 views 33 this week
no commentswrite comment
1 2 3 4 5
1 last vote to show rating
add to favorites
×
Save as Personal and add changes to this tab that will be seen only by you. Learn more ›
×
You can save this tab as Personal to edit and correct it or add notes. All changes will be seen only by you. Learn more »
launch autoscroll
font size
0
reset
how to read this tab
guitar tuner
edit
Autoscroll
slow
fast
+/-
esc
set tempo
stop
Author
Difficulty
-------------------------------------------------------------------------------
                              Violet by Hole
-------------------------------------------------------------------------------

Classic opening track from 'Live Through This' (1994). This tab is based off of 
the album version, and I've tabbed/notated both Eric
and Courtney's guitar pieces here and when and where to play them. There are some layers 
going on in the song, so I did my best to replicate that with the lead and rhythm pieces.

Tabbed by: Scott H.

Tuning: Standard (EADGBE)

Guitar 1 (Eric Erlandson)
Guitar 2 (Courtney Love)


Intro/Verse

Guitar 1
e|--------------------------------------------------|
B|--------------------------------------------------|
G|---6-6-6-6-6-6-6-6---2-2-2-2-2-2-2-2-2------------|
D|---7-7-7-7-7-7-7-7---3-3-3-3-3-3-3-3-3---2--------|
A|---7-7-7-7-7-7-7-7---3-3-3-3-3-3-3-3-3---3--------|
E|-----------------------------------------3--------|

Guitar 2
e|---------------------------------------------------|
B|---------------------------------------------------|
G|---9-9-9-9-9-9-9-9---5-5-5-5-5-5-5-5-5-------------|
D|---9-9-9-9-9-9-9-9---5-5-5-5-5-5-5-5-5---5---------|
A|---7-7-7-7-7-7-7-7---3-3-3-3-3-3-3-3-3---5---------|
E|-----------------------------------------3---------|

         And the sky was made of amethyst
         And all the stars are just like little fish
         You should learn when to go
         You should learn how to say "no"


Pre-Chorus

Guitar 1
e|----------------------------------------|
B|----------------------------------------|
G|---------------2-2-2-2-2--4-------------|
D|--2-2-2-2-2-2--3-3-3-3-3--5-------------|
A|--2-2-2-2-2-2--3-3-3-3-3--5-------------|
E|--0-0-0-0-0-0--0-0-0-0-0--0-------------|

Guitar 2
e|----------------------------------------|
B|----------------------------------------|
G|----------------------------------------|
D|--2-2-2-2-2-2--3-3-3-3-3--5-------------|
A|--2-2-2-2-2-2--3-3-3-3-3--5-------------|
E|--0-0-0-0-0-0--1-1-1-1-1--3-------------|

         Might last a day
         Mine is forever
         Might last a day, yeah
         Mine is forever


Chorus

Guitar 1
e|-------------------------------------------------------|
B|-------------------------------------------------------|
G|--6-6-6-6-6--2-2-2-2-2-2--4-4-4-4-4--------------------|
D|--7-7-7-7-7--3-3-3-3-3-3--5-5-5-5-5--4-4-4-4-4---------|
A|--7-7-7-7-7--3-3-3-3-3-3--5-5-5-5-5--5-5-5-5-5---------|
E|-------------------------------------5-5-5-5-5---------|

Guitar 2
e|-------------------------------------------------------|
B|-------------------------------------------------------|
G|--9-9-9-9-9--5-5-5-5-5-5--7-7-7-7-7-7------------------|
D|--9-9-9-9-9--5-5-5-5-5-5--7-7-7-7-7-7--7-7-7-7-7-------|
A|--7-7-7-7-7--3-3-3-3-3-3--5-5-5-5-5-5--7-7-7-7-7-------|
E|---------------------------------------5-5-5-5-5-------|


         When they get what they want
         They never want it again
         And they get what they want
         And they never want it again
 
         Go on, take everything
         Take everything, I want you to
         Go on, take everything
         Take everything, I want you to

Verse

         And the sky was all violet
         I want it again but violent, more violent
         Yeah, I'm the one with no soul
         One above and one below
         
Pre-Chorus

         Might last a day
         Mine is forever
         Might last a day
         Mine is forever

Chorus
         When they get what they want
         They never want it again
         When they get what they want
         They never want it again

         Go on, take everything
         Take everything, I want you to
         Go on, take everything
         Take everything, I dare you to

         I told you from the start
         Just how this would end
         When I get what I want
         I never want it again

         Go on, take everything
         Take everything, I want you to
         Go on, take everything
         Take everything, I want you to


Bridge/Solo

Guitar 1
e|--------------------------------------------------------------|
B|--------------------------------------------------------------|
G|--8-8--6-6-6-6--12-12-9--14-14-14-14-14-14--11-11-11-11-11----|
D|--9-9--7-7-7-7--10-10-7--12-12-12-12-12-12---9--9--9--9--9----|
A|--9-9--7-7-7-7------------------------------------------------|
E|--------------------------------------------------------------|


Chorus
         Go on, take everything
         Take everything, I want you to
         Go on, take everything
         Take everything, I want you to

         Go on, take everything
         Take everything, I want you to

         Go on, take everything
         Take everything
         Take everything
         Take everything

            
            
Suggest correction
Creating personal tab
Creating personal tab
You can edit any tab online and save it as your Personal.

You can edit, replace or remove any tab part or add personal notes – all changes will be seen only by you.

Personal tabs can be accessed anytime from any device, even offline.
Learn more »
Give kudos to tab author, rate the tab!
1 2 3 4 5
comments
print report bad tab
guest
You may want to rate the tab now too:
select rating
Wanna post a correction for this tab? Suggest correction