Oops, an error
Loading. Please wait.

Whose Porno You Burn Black ukulele

by Hole
325 views 1 this week
no commentswrite comment
1 2 3 4 5
3 more votes to show rating
add to favorites
×
Save as Personal and add changes to this tab that will be seen only by you. Learn more ›
×
You can save this tab as Personal to edit and correct it or add notes. All changes will be seen only by you. Learn more »
launch autoscroll
font size
0
reset
transpose
0
reset
display chords
guitar tuner
edit
Autoscroll
slow
fast
+/-
esc
set tempo
stop
Difficulty
Strumming
There is no strumming pattern for this song yet. and get +5 IQ
-------------------------------------------------------------------------------
                             Whose Porno You Burn (Black) by Hole
-------------------------------------------------------------------------------

This is a retread of the band's 1991 track "Burn Black", featured as a b-side on 
the "Dicknail" single as well as "My Body, the Hand Grenade". This song, entitled 
"Whose Porno You Burn (Black)", was recorded live in 1994 and included on the 
band's 1995 "Violet" single as a b-side. There are lyrics and guitar work carried 
over from "Burn Black" here, though other pieces of the song are original. Sounds 
to me like it's about Kurt's drug problem, judging from the lyrics. There is 
already a tab on here for this but it doesn't include the string-mute intro and 
also doesn't denote any lyrics or timing, so this is an attempt at a more complete version.


"x" = string mute
"/" = slide up

Tabbed by: Scott H.

Tuning: Standard



Riff A (Intro):

e|----------------------------------------------|
B|----------------------------------------------|
G|---7-xxxxx-xxxx-xxxxxx-xxxx-xxxxxx-xxxx-------|
D|---7-xxxxx-xxxx-xxxxxx-xxxx-xxxxxx-xxxx-------|
A|---5-xxxxx-xxxx-xxxxxx-xxxx-xxxxxx-xxxx-------|
E|----------------------------------------------|

     Where is the needle?

Riff A
    Who is the gun?

Riff A
    Where is the bullet? (Aw, yeah)

Riff A
    Where is the noose to turn you loose?

Riff A
    Where is your needle? (Aw, yeah)



Riff B:

e|---------------------------------|
B|---------------------------------|
G|-------------0-------------------|
D|-----0-----0-------0-----0-------|
A|---0-----0-------0-----0---0-----|
E|-2-------------3-----------------|


Riff B x 2


Riff B
    Starts out like magic, some sick religion

Riff B
    That ain't no vulture, that's a fuckin' pigeon

Riff B
    And he's got vultures in his hair

Riff B
    And blood and feathers, they are everywhere


Riff C:

e|-------------------|
B|-------------------|
G|-------------------|
D|--444444/55555-----|
A|--000000/00000-----|
E|--222222/33333-----|

    You want retreat, filthy and deep


Riff C
    A dead moon, a drunken sleep

Riff C
    I know whose porno that you burn

Riff C
    And I'll be everywhere you turn

Riff C
    And baby, there, there is a room

Riff C
    Full of death and whores and you

Riff C
    And I am waiting in that room

Riff C
    And I will wait forever for you


Riff D:

e|--------------------------------|
B|--------------------------------|
G|--------------------------------|
D|-11-11-11-11/12-12-12-12--------|
A|-11-11-11-11/12-12-12-12--------|
E|--9--9--9--9/10-10-10-10--------|


    It's all hoarse, it's all pain


Riff D
    It's all disease, man, it's all the same

Riff D
    My little Judas, my little twin

Riff D
    "Where you start, that's where I begin", she said


Riff E:

e|---------------------|
B|---------------------|
G|---------------------|
D|---------------------|
A|---------------------|
E|-22222222/3333333----|

    "I want it now", she said


Riff E
    "I want it now", she said

Riff E
    "I want it now", she said

Riff E
    "I want it now", she said


Riff E
    And you don't listen to what I say

Riff E
    Just masturbate your life away

Riff E
    And you don't listen to what I say

Riff E
    Just masturbate your life away

Riff E
    Masturbate your life away

Riff E
    Masturbate your life away

Riff E
    And you don't listen to what I say

Riff E
    Just masturbate your life away

Riff E
    Just masturbate your life away

Riff E
    Masturbate your life away


Riff F:

e|---------------------------------|
B|---------------------------------|
G|---------------------------------|
D|----------0----------------0-----|
A|------0----------------0---------|
E|--2----------------3-------------|

     Yeah, yeah, yeah, yeah


Riff F
    And you don't listen to what I say

Riff F
    Just masturbate your life away

Riff F
    You don't listen to what I say

Riff F
    Just masturbate your life away

Riff F
    Yeah, yeah

Riff F
    Come back

Riff F
    Come back


[Play Riff G after she finishes singing]


Riff G:

e|-2--3------|
B|-0--0------|
G|-0--0------|
D|-0--0------|
A|-0--0------|
E|-2--3------|

            
            
Suggest correction
Creating personal tab
Creating personal tab
You can edit any tab online and save it as your Personal.

You can edit, replace or remove any tab part or add personal notes – all changes will be seen only by you.

Personal tabs can be accessed anytime from any device, even offline.
Learn more »
Give kudos to tab author, rate the tab!
1 2 3 4 5
comments
print report bad tab
guest
Wanna post a correction for this tab? Suggest correction