Oops, an error
Loading. Please wait.

Walking By tab

17,536 views 6 this week
5 commentsread comments
1 2 3 4 5
x 3
add to favorites
×
Save as Personal and add changes to this tab that will be seen only by you. Learn more ›
×
You can save this tab as Personal to edit and correct it or add notes. All changes will be seen only by you. Learn more »
launch autoscroll
font size
0
reset
how to read this tab
guitar tuner
edit
Autoscroll
slow
fast
+/-
esc
set tempo
stop
----------------------------------------------------------------------------
                          Walking By - Holiday Parade
----------------------------------------------------------------------------
Tabbed by: cmartin350
Email:suprchick45@hotmail.com

Tuning: Standard, capo on the 2nd fret

INTRO
e|------------------------------------|
B|-0----0h1p0---3------3--5-------5---|
G|---0--------0---0---------0---------|
D|------------------------------------|   X2
A|--------------2---2-----3----3------|
E|-3----3-----------------------------|

VERSE 1
e|------------------------------------|
B|-0----0h1p0---3------3--5-------5---|
G|---0--------0---0---------0---------|
D|------------------------------------|   X2
A|--------------2---2-----3----3------|
E|-3----3-----------------------------|
    
e|--3--0--2-3---2----0-2---7---5---3---2----0---0--2----|
B|-----0-----------3---------8---7---5---3----1-1--3----|
G|-------------------2-----------------------------2----|
D|--------------0----------------------0-----------0----|
A|--------2---------------------------------3---3--x----|
E|--0----------------------7---5---3---------------x----|


CHORUS
   Cadd9     G       Em      D
e|---3-------3-------0-------0--------|
B|---3-------3-------0---------3------|
G|---0-------0-------0----------------|                  
D|---2-------0-------2-------0--------|    x3
A|---3-------2-------2----------------|
E|---x-------3-------0----------------|

e|---3--------3-3-3-2-------------|
B|---1--------3-3-3-3-------------|
G|---0--------2-2-2-2-------------|
D|---2--(x8)--0-0-0-0-------------|
A|---3----------------------------|
E|---x----------------------------|


INTERLUDE 1:
e|------------------------------------|
B|-0----0h1p0---3------3--5-------5---|
G|---0--------0---0---------0---------|
D|------------------------------------|   X2
A|--------------2---2-----3----3------|
E|-3----3-----------------------------|


VERSE 2
     G        D      Cadd9
e|---3--------2--------3--------|
B|---3--------3--------3--------|
G|---0--------2--------0--------|
D|---0--------0--------2--------|    x2
A|---2--------x--------3--------|
E|---3--------x--------x--------|

    Em   D    G   D/F#   Em   D    C      D
e|--0----2----3----3-----0----2--------0--2---|
B|--0----3----3----3-----0----3--------1--3---|
G|--0----2----0----0-----0----2------0----2---|
D|--2----0----0----0-----2----0-----------0---|
A|--2----x----2----x-----2----x----3------x---|
E|--0----x----3----2-----0----x-----------x---|


CHORUS (MODIFIED)
   Cadd9     G       Em      D
e|---3-------3-------0-------0--------|
B|---3-------3-------0---------3------|
G|---0-------0-------0----------------|                  
D|---2-------0-------2-------0--------|    x2
A|---3-------2-------2----------------|
E|---x-------3-------0----------------|

   Cadd9        G       Em      D
e|---3---xxx----3-------0-------0--------|
B|---3---xxx----3-------0-------3--------|
G|---0---xxx----0-------0-------2--------|                  
D|---2---xxx----0-------2-------0--------|
A|---3---xxx----2-------2----------------|
E|---x---xxx----3-------0----------------|

     C        D
e|---3--------2-------------|
B|---1--------3-------------|
G|---0--------2-------------|
D|---2--(x8)--0--(x8)-------|
A|---3----------------------|
E|---x----------------------|


BRIDGE
   Cadd9     G      D/F#
e|---3-------3-------3--------|
B|---3-------3-------3--------|
G|---0-------0-------0--------|
D|---2-------0-------0--------|     X3
A|---3-------2-------x--------|
E|---x-------3-------2--------|

             Em   D/F#   G    D/F#   C
Then I could some-how    feel it     again


INTERLUDE 2
e|-----------------------------------------------------|
B|-------------------------------------------------1---|
G|-------0-------0--------0--------0------------0------|
D|-----0--0-----0-0------0-0------0-0-------0h2--------|
A|---------------------------------------3-------------|
E|---0--------2-------3--------2-----------------------|


CHORUS (MODIFIED) x2


OUTRO
e|----------------------------------------------------------------|
B|-0----0h1p0--3------3--5-------5----0----0h1p0--3------3--3/5---|
G|---0-----------0---------0------------0-----------0-------------|
D|----------------------------------------------------------------|
A|-------------2---2-----3----3-------------------2---2-----2/3---|
E|-3----3-----------------------------3----3----------------------|

let the last note ring



| /  slide up
| \  slide down
| h  hammer-on
| p  pull-off
| ~  vibrato
| +  harmonic
| x  Mute note
=============================================================
Suggest correction
Creating personal tab
Creating personal tab
You can edit any tab online and save it as your Personal.

You can edit, replace or remove any tab part or add personal notes – all changes will be seen only by you.

Personal tabs can be accessed anytime from any device, even offline.
Learn more »
Give kudos to tab author, rate the tab!
1 2 3 4 5
comments
print report bad tab
5 comments total. Showing first comments.
0 reply
hushbandit 30 Apr 06, 2008 01:22 PM

kudos man! :D

ox0xo0xo0xo0x

0 reply
uiop21 349 May 05, 2008 04:20 PM

Pre chorus is off:

Try this:

Em - D - G -D/F# - Em - D - C -D

0 reply
cmartin350 188 May 18, 2008 12:05 PM

ahh yes, thats much better, thnx!! i knew it was off but i wasnt sure how 2 fix it..... so thnx again ^^

guest
You may want to rate the tab now too:
select rating
Wanna post a correction for this tab? Suggest correction