Oops, an error
Loading. Please wait.

And His Face Lit Up Blue Tab

153 views 1 this week
no commentswrite comment
1 2 3 4 5
please rate
add to favorites
launch autoscroll
font size
0
reset
how to read this tab
guitar tuner
Autoscroll
slow
fast
+/-
esc
set tempo
stop
Help us to improve Ultimate-Guitar.com Take our survey!
×
Author
-------------------------------------------------------------------------------
                             And His Face Lit Up Blue - Holiday Unheard Of
-------------------------------------------------------------------------------
Tabbed by:Aurei
E-mail:aureilovelyy@gmail.com

Band Website:http://www.myspace.com/holidayunheardof

Slightly modified version of my cover found here:
https://www.youtube.com/watch?NR=1&v=zT_Xfrkjp2w&feature=endscreen

Tuning:Standard (E A D G B e)


(0:00-0:05) Let the notes ring.

e|-----------------------------------------------------------------|
B|-------------3---------------3---------------3---------------3---|
G|-----7-----0---0-----7-----0---0-----7-----0---0-----7-----0---0-|
D|---5---5-5---------5---5-5---------5---5-5---------5---5-5-------|
A|-7---------------7---------------7---------------7---------------|
E|-----------------------------------------------------------------|

(0:05-0:27)

e|----------------------------------------------------------------|
B|----------------------------------------------------------------|
G|---------------5-5-5-5-5-5-5-9-9-9-9-9-9-9-10-10-10-10-10-10-10-|
D|-7-7-7-7-7-7-7-5-5-5-5-5-5-5-9-9-9-9-9-9-9-10-10-10-10-10-10-10-|
A|-7-7-7-7-7-7-7-3-3-3-3-3-3-3-7-7-7-7-7-7-7-8--8--8--8--8--8--8--|
E|-5-5-5-5-5-5-5--------------------------------------------------|(x4)

(0:27-0:37)

e|----3---2----------------------10-11/12-------------------------|
B|------5---3-5--3/5-0--------------------11/12-10~---------------|
G|-----------------------9-7~-------------------------9~----------|
D|-14\-----------------7------------------------------------------|
A|-14\------------------------------------------------------------|
E|-14\------------------------------------------------------------|

(0:38-0:49)

e|-------------10b---15----------------------------15----17b------|
B|---------8-7----------19-15\10/12---10----15~-------19----------|
G|-----7h9-------------------------------14-----------------------|
D|-7h9------------------------------------------------------------|
A|----------------------------------------------------------------|
E|----------------------------------------------------------------|

(0:50-1:11) Finger Tapping

e|------------------------------------------------------------------|
B|------------------------------------------------------------------|
G|--------0h12-----0h11/12------0h9\7--------------0h9--------------|
D|------------------------------------------------------------------|
A|-0h7h14------0h7---------0h14-------0h5------0h5-----0h10h12------|
E|----------------------------------------0h10-----------------0h10-|(x8)

(1:12-1:22) Finger Tapping Contin. (Variation)

e|-----------------------------------------------------------------|
B|-----------------------------------------------------------------|
G|--------0h12-----0h11/12------0h9\7----0----0h9------------------|
D|-----------------------------------------------------------------|
A|-0h7h14------0h7---------0h14-------------------0h10h12----------|
E|------------------------------------10---10-------------0h10-----|(x4)

(1:23-1:39)

e|-3-0-3-0-3-0-3-0-3-0-3-0-3-0-3-0-2-0-2-0-2-0-2-0-5-0-5-0-5-0-5-0-|
B|-----------------------------------------------------------------|
G|-----------------------------------------------------------------|
D|-----------------------------------------------------------------|
A|-----------------------------------------------------------------|
E|-----------------------------------------------------------------|(x3)

(1:39-1:44)

e|-----------------------------------------------------------------|
B|-8-5-8-5-8-5-8-5-8-5-8-5-8-5-8-5-7-5-7-5-7-5-7-5-----------------|
G|-------------------------------------------------10\-------------|
D|-----------------------------------------------------------------|
A|-----------------------------------------------------------------|
E|-----------------------------------------------------------------|

(1:45-2:17)

e|-15-15-14-15p14-------------------------------------15-14--------|
B|----------------15-12--15/17----15+-10/12--12-12-12-------15-----|
G|-----------------------------19----------------------------------|
D|-----------------------------------------------------------------|
A|-----------------------------------------------------------------|
E|-----------------------------------------------------------------|

                 | These two are connected |      Play | (x4)

e|----------15-14----15-14-15-15-14-15-15-14-15--------------------|
B|-12-12-12-------15-----------------------------------------------|
G|-----------------------------------------------------------------|
D|-----------------------------------------------------------------|
A|-----------------------------------------------------------------|
E|-----------------------------------------------------------------|

(2:18-2:28) Tremelo Picking

e|-20----18--------------------------------------------------------|
B|-------------19-----20--19-20-19-20------------------------------|
G|-------------------------------------19----21--------------------|
D|-------------------------------------------------19--------------|
A|-----------------------------------------------------------------|
E|-----------------------------------------------------------------|

(2:28-2:40) Tremelo Picking

e|-/20----18------------------------------------------------------------|
B|--------------19----20--19-20-19-20--15----17-------------------------|
G|-------------------------------------------------14---12--12-14-12----|
D|-------------------------------------------------------------------12-|
A|----------------------------------------------------------------------|
E|----------------------------------------------------------------------|

(2:40-2:51) Tremelo Picking

e|-20----18--------------------------------------------------------|
B|-------------19----20--19-20-19-20--15----17---------------------|
G|------------------------------------------------14---------------|
D|-----------------------------------------------------------------|
A|-----------------------------------------------------------------|
E|-----------------------------------------------------------------|

(2:51-2:59)

e|---------------3-3-2h3p2-0-2-3-3-3-2h3p2-0-2-3-3-3-2h3p2-0-2-3-3-3-2h3p2-|
B|-------------------------------------------------------------------------|
G|-------------------------------------------------------------------------|
D|-5-5-5-5-5-5-5-----------------------------------------------------------|
A|-5-5-5-5-5-5-5-----------------------------------------------------------|
E|-3-3-3-3-3-3-3-----------------------------------------------------------|(x2)

(2:59-3:07)

e|---------------3-3-2h3p2-0-2-3-3-3-2h3p2-0-2-3-3-3-2h3p2-0-2-3-3-3-2h3p2-|
B|-------------------------------------------------------------------------|
G|-------------------------------------------------------------------------|
D|-4-4-4-4-4-4-4-----------------------------------------------------------|
A|-4-4-4-4-4-4-4-----------------------------------------------------------|
E|-2-2-2-2-2-2-2-----------------------------------------------------------|(x2)

(3:07-3:16)

e|---------------3-3-2h3p2-0-2-3-3-3-2h3p2-0-2-3-3-3-2h3p2-0-2-3-3-3-2h3p2-|
B|-------------------------------------------------------------------------|
G|-------------------------------------------------------------------------|
D|-5-5-5-5-5-5-5-----------------------------------------------------------|
A|-5-5-5-5-5-5-5-----------------------------------------------------------|
E|-3-3-3-3-3-3-3-----------------------------------------------------------|(x2)

(3:16-3:20)

e|---------------3-3-2h3p2-0-2-3-3-3-2h3p2-0-2-3-3-3-2h3p2-0-2-3-3-3-2h3p2-|
B|-------------------------------------------------------------------------|
G|-------------------------------------------------------------------------|
D|-4-4-4-4-4-4-4-----------------------------------------------------------|
A|-4-4-4-4-4-4-4-----------------------------------------------------------|
E|-2-2-2-2-2-2-2-----------------------------------------------------------|

(3:20-3:23)

e|-------------------------------------------------------------------------|
B|-------------------------------------------------------------------------|
G|-------------------------------------------------------------------------|
D|-4-4-4-4-4-4-4----4-4--4-------------------------------------------------|
A|-4-4-4-4-4-4-4----4-4--4-------------------------------------------------|
E|-2-2-2-2-2-2-2----2-2--2-------------------------------------------------|

(3:24-4:13) All of these notes are palm muted.

e|-----------------------------------------------3-3-------3-3---------------------|
B|-------3-3-------3-3-------3-3-------3-3-------5-5-------5-5-------3-3-------3-3-|
G|-------4-4-------4-4-------2-2-------2-2---------------------------4-4-------4-4-|
D|---------------------------------------------------------------------------------|
A|---------------------------------------------------------------------------------|
E|-2-2-2-----2-2-2-----2-2-2-----2-2-2-----5-5-5-----5-5-5-----2-2-2-----2-2-2-----|(x6)

(4:14-4:30) Let the notes ring.

e|-------------10----------------------------------------------------------------------------------|
B|-------7---------7---------------------10------------------------------------------------7-------|
G|----7-----7---------7-----------9----------9--------------7------12--7-------------6--------6----|
D|-9--------------------------11-----11---------7-------11-----11---------7-------9-----9--------9-|
A|-------------------------9-------------------------9-------------------------7-------------------|
E|-------------------------------------------------------------------------------------------------|
(x2)
************************************

| /   slide up
| \   slide down
| h   hammer-on
| p   pull-off
| ~   vibrato
| +   harmonic
| x   Mute note
| b   Bend
| pb  Pre-bend
| br  Bend release
| pbr Pre-bend release
| brb Bend release bend

************************************
Suggest correction
What's this?
You can suggest a correction to this tab. Community and Mods will review your correction and vote to approve or reject it.
comments
We did not receive enough feedback on this tab! Please rate:
print report bad tab
1 2 3 4 5
guest
You may want to rate the tab now too:
select rating
Please do not post tabs as comments. Select "correction" instead!