Oops, an error
Loading. Please wait.

See-Through tab

by Holland
4 views 1 this week
no commentswrite comment
1 2 3 4 5
3 more votes to show rating
add to favorites
×
Save as Personal and add changes to this tab that will be seen only by you. Learn more ›
×
You can save this tab as Personal to edit and correct it or add notes. All changes will be seen only by you. Learn more »
launch autoscroll
font size
0
reset
how to read this tab
guitar tuner
edit
Autoscroll
slow
fast
+/-
esc
set tempo
stop
About this tab version
I went through and tried to match the lyrics in the tab to the video, but it's not perfect. Was this info helpful? Yes No
Tuning: eCGCAF

Based on: https://www.youtube.com/watch?v=QRAbTgHVDaQ

[Intro]
      3    1             4  1 3 2 3         3     1   3         3  1    1bar
e|------------------------------3---3/5p0-|----------------------------------------|
C|-------0-2p0--------------2-4---4-------|-------0-2p0----------------------------|
G|---2/4---4---4/5\4p0---5----------------|---2/4-------4\2-4\2-0------------------|
C|----------------------------------------|-----------------------4p2p0-2h4--------|
A|----------------------------------------|-----------------0-----------2----------|
F|-0---------------------0----------------|-0---------------------------2----------|

      3    1             4  1 3 2 3         3     1   3         3  1    1bar
e|------------------------------3---3/5p0-|----------------------------------------|
C|-------0-2p0--------------2-4---4-------|-------0-2p0----------------------------|
G|---2/4---4---4/5\4p0---5----------------|---2/4-------4\2-4\2-0------------------|
C|----------------------------------------|-----------------------4p2p0-2h4--------|
A|----------------------------------------|-----------------0-----------2----------|
F|-0---------------------0----------------|-0---------------------------2----------|

[Verse]
  After all I didn't...     mean to stare
e|----------------------+12---------------|
C|---------------------+12----------------|
G|--------------------+12-----------------|
C|-------------------+12------------------|
A|----------------------------------------|
F|----------------------------------------|

      3    1             4  1 3 2 3         3     1   3         3  1    1bar
e|------------------------------3---3/5p0-|----------------------------------------|
C|-------0-2p0--------------2-4---4-------|-------0-2p0----------------------------|
G|---2/4---4---4/5\4p0---5----------------|---2/4-------4\2-4\2-0------------------|
C|----------------------------------------|-----------------------4p2p0-2h4--------|
A|----------------------------------------|-----------------0-----------2----------|
F|-0---------------------0----------------|-0---------------------------2----------|

                                                        You just happen to be standing right there
      3    1             4  1 3 2 3         3     1   3         3  1    1bar
e|------------------------------3---3/5p0-|----------------------------------------|
C|-------0-2p0--------------2-4---4-------|-------0-2p0----------------------------|
G|---2/4---4---4/5\4p0---5----------------|---2/4-------4\2-4\2-0------------------|
C|----------------------------------------|-----------------------4p2p0-2h4--------|
A|----------------------------------------|-----------------0-----------2----------|
F|-0---------------------0----------------|-0---------------------------2----------|

           These times, they aren't wasted...           I just don't know where you are half the time  
      3    1             4  1 3 2 3         3     1   3         3  1    1bar
e|------------------------------3---3/5p0-|----------------------------------------|
C|-------0-2p0--------------2-4---4-------|-------0-2p0----------------------------|
G|---2/4---4---4/5\4p0---5----------------|---2/4-------4\2-4\2-0------------------|
C|----------------------------------------|-----------------------4p2p0-2h4--------|
A|----------------------------------------|-----------------0-----------2----------|
F|-0---------------------0----------------|-0---------------------------2----------|

   but,    To me...                 this could be...       everything.
      3    1             4  1 3 2 3         3     1   3         3  1    1bar
e|------------------------------3---3/5p0-|----------------------------------------|
C|-------0-2p0--------------2-4---4-------|-------0-2p0----------------------------|
G|---2/4---4---4/5\4p0---5----------------|---2/4-------4\2-4\2-0------------------|
C|----------------------------------------|-----------------------4p2p0-2h4--------|
A|----------------------------------------|-----------------0-----------2----------|
F|-0---------------------0----------------|-0---------------------------2----------|

[Chorus]
   I'll stare at space with you and space is just wall

e|-----------------------------3----------|
C|-----------------------------4----------|
G|-------0-2p0-------------4/5------------|
C|---2/4-------2h4p0---2/4----------------|
A|----------------------------------------|
F|-0-----------------0--------------------|

   Everything seems see-through, see-through
    
e|-----------------------------3----------|
C|-----------------------------4----------|
G|-------0-2p0-------------4/5------------|
C|---2/4-------2h4p0---2/4----------------|
A|-------------------0--------------------|
F|-0--------------------------------------|

   Your eyes they are accustomed to
 
e|-----------------------------3----------|
C|-----------------------------4----------|
G|-------0-2p0-------------4/5------------|
C|---2/4-------2h4p0---2/4----------------|
A|----------------------------------------|
F|-0-----------------0--------------------|

[Verse 2]
  Looking through clouds. Now listen up.    I'll help you reach the moon if you want to
      3    1             4  1 3 2 3         3     1   3         3  1    1bar
e|------------------------------3---3/5p0-|----------------------------------------|
C|-------0-2p0--------------2-4---4-------|-------0-2p0----------------------------|
G|---2/4---4---4/5\4p0---5----------------|---2/4-------4\2-4\2-0------------------|
C|----------------------------------------|-----------------------4p2p0-2h4--------|
A|----------------------------------------|-----------------0-----------2----------|
F|-0---------------------0----------------|-0---------------------------2----------|

   Be alone that's fine with me             I'll leave you be, from up there, look, 
    3    1             4  1 3 2 3         3     1   3         3  1    1bar
e|------------------------------3---3/5p0-|----------------------------------------|
C|-------0-2p0--------------2-4---4-------|-------0-2p0----------------------------|
G|---2/4---4---4/5\4p0---5----------------|---2/4-------4\2-4\2-0------------------|
C|----------------------------------------|-----------------------4p2p0-2h4--------|
A|----------------------------------------|-----------------0-----------2----------|
F|-0---------------------0----------------|-0---------------------------2----------|

   everything is see-through 
      3    1             4  1 3 2 3         3     1   3         3  1    1bar
e|------------------------------3---3/5p0-|----------------------------------------|
C|-------0-2p0--------------2-4---4-------|-------0-2p0----------------------------|
G|---2/4---4---4/5\4p0---5----------------|---2/4-------4\2-4\2-0------------------|
C|----------------------------------------|-----------------------4p2p0-2h4--------|
A|----------------------------------------|-----------------0-----------2----------|
F|-0---------------------0----------------|-0---------------------------2----------|


      3    1             4  1 3 2 3         3     1   3         3  1    1bar
e|------------------------------3---3/5p0-|----------------------------------------|
C|-------0-2p0--------------2-4---4-------|-------0-2p0----------------------------|
G|---2/4---4---4/5\4p0---5----------------|---2/4-------4\2-4\2-0------------------|
C|----------------------------------------|-----------------------4p2p0-2h4--------|
A|----------------------------------------|-----------------0-----------2----------|
F|-0---------------------0----------------|-0---------------------------2----------|

                 Over my dead body
e|-------------------+12------------------|
C|------------------+12-------------------|
G|-----------------+12--------------------|
C|----------------+12---------------------|
A|----------------------------------------|
F|----------------------------------------|

Same time again                                         I'll see you next week
      3    1             4  1 3 2 3         3     1   3         3  1    1bar
e|------------------------------3---3/5p0-|----------------------------------------|
C|-------0-2p0--------------2-4---4-------|-------0-2p0----------------------------|
G|---2/4---4---4/5\4p0---5----------------|---2/4-------4\2-4\2-0------------------|
C|----------------------------------------|-----------------------4p2p0-2h4--------|
A|----------------------------------------|-----------------0-----------2----------|
F|-0---------------------0----------------|-0---------------------------2----------|
 
      In my dreams, in reality                Honestly, you will be seeing me
      3    1             4  1 3 2 3         3     1   3         3  1    1bar
e|------------------------------3---3/5p0-|----------------------------------------|
C|-------0-2p0--------------2-4---4-------|-------0-2p0----------------------------|
G|---2/4---4---4/5\4p0---5----------------|---2/4-------4\2-4\2-0------------------|
C|----------------------------------------|-----------------------4p2p0-2h4--------|
A|----------------------------------------|-----------------0-----------2----------|
F|-0---------------------0----------------|-0---------------------------2----------|

   Oh my god the rules that we bend          Can't help me believe in things that we can't see
      3    1             4  1 3 2 3         3     1   3         3  1    1bar
e|------------------------------3---3/5p0-|----------------------------------------|
C|-------0-2p0--------------2-4---4-------|-------0-2p0----------------------------|
G|---2/4---4---4/5\4p0---5----------------|---2/4-------4\2-4\2-0------------------|
C|----------------------------------------|-----------------------4p2p0-2h4--------|
A|----------------------------------------|-----------------0-----------2----------|
F|-0---------------------0----------------|-0---------------------------2----------|

   I'm obsessed with the concept of death now
      3    1             4  1 3 2 3         3     1   3         3  1    1bar
e|------------------------------3---3/5p0-|-------------------------------------0--|
C|-------0-2p0--------------2-4---4-------|-------0-2p0-------------------------0--|
G|---2/4---4---4/5\4p0---5----------------|---2/4-------4\2-4\2-0---------------0--|
C|----------------------------------------|-----------------------4p2p0-2h4/5---0--|
A|----------------------------------------|-----------------0-----------2-------0--|
F|-0---------------------0----------------|-0---------------------------2-------0--|


********************************************************

| /  slide up
| \  slide down
| h  hammer-on
| p  pull-off
| ~  vibrato
| +  harmonic
| x  Mute note

********************************************************

            
            
Suggest correction
Creating personal tab
Creating personal tab
You can edit any tab online and save it as your Personal.

You can edit, replace or remove any tab part or add personal notes – all changes will be seen only by you.

Personal tabs can be accessed anytime from any device, even offline.
Learn more »
Give kudos to tab author, rate the tab!
1 2 3 4 5
comments
print report bad tab
guest
You may want to rate the tab now too:
select rating
Wanna post a correction for this tab? Suggest correction