Oops, an error
Loading. Please wait.

On My Own tab

707 views 3 this week
2 commentsread comments
1 2 3 4 5
x 5
add to favorites
×
Save as Personal and add changes to this tab that will be seen only by you. Learn more ›
×
You can save this tab as Personal to edit and correct it or add notes. All changes will be seen only by you. Learn more »
launch autoscroll
font size
0
reset
how to read this tab
guitar tuner
edit
Autoscroll
slow
fast
+/-
esc
set tempo
stop
On My Own
Hollerado
Record In A Bag



intro:

e|--------------------------------------------------------|
B|-------------------------------------------------2------|
G|-------------------------------------------------2------|
D|-2--4--7--9/11~----11-11-11-11-9-7-4---/7-4-2----2------|
A|-------------------------------------------------0------|
E|--------------------------------------------------------|


A
There's a town in southern Georgia where
A
The sun sets thick and slow
A
If I could take a trip with you
A
That's where we would go
A
I'd bring the playing cards
A
You'd melt the snow
A
That lets us out of here
D                              A
Hey now I've been waiting so long

Bm D  A
On my own

A
I've got this sweater in my dresser drawer
A
That I wear when I'm sick
A
But the winter's finally over
A
So I won't be bringing it
A
You bring granola bars
A
I'll bring some bags
A
To put the wrappers in
D                               A
Hey now I've been waiting so long

Bm D  A
On my own
Bm D  A 
On my own

solo:

e|---------------------------------------------------------------|
B|-12b----10-12p10----10--12p10----12p10-------------------------|
G|-----11----------11-----------11-------11-9--9-----9-----------|
D|-----------------------------------------------10b-------------|
A|---------------------------------------------------------------|
E|---------------------------------------------------------------|

e|-------------------------------------------------9-------------|
B|-12/14-12b----10-12p10----10--12p10----12p10-----10------------|
G|-----------11----------11-----------11-------11--9-------------|
D|---------------------------------------------------------------|
A|---------------------------------------------------------------|
E|---------------------------------------------------------------|

Bm D  A
On my own
Bm D  A
On my own

A
And when it's time to change the music
A
We'll stop and get some gas
A
And the rest stop will have a screen door
A
Where we'll buy some souvenir hats
A
Come on pet the neighbor's dog
A
Before we do the driving
A
Through the afternoon

One two three four!

D                              A
Hey now I've been waiting so long

Bm D  A
On my own
Bm D  A
On my own     

Bm D  A
On my own
Suggest correction
Creating personal tab
Creating personal tab
You can edit any tab online and save it as your Personal.

You can edit, replace or remove any tab part or add personal notes – all changes will be seen only by you.

Personal tabs can be accessed anytime from any device, even offline.
Learn more »
comments
print report bad tab
2 comments total.
0 reply
HolgerMax 10 May 27, 2013 04:11 PM

to few people tabbing great hollerado songs songs like this, thanks!

0 reply
justin_brodie 132 Jul 16, 2013 07:07 PM

e|-------------|-------------|-------------|
B|-------------|-------------|-------------|
G|-------------|-------------|-------------|
D|-------------|---4---4---4-|-------------|
A|---4---4---4-|-5---5---5---|---5---5---5-|
E|-5---5---5---|-------------|-7---7---7---|

Is how the chords are played, I think, just with more repetition. The first being A, second being D, third being Bm. Great tab though.

guest
You may want to rate the tab now too:
select rating
Wanna post a correction for this tab? Suggest correction