Oops, an error
Loading. Please wait.

Coastline Acoustic tab

version 2
version 2

Whole song

  • The tuning in this tab is the original of the song... Show more
157 views 36 this week
1 commentread comment
1 2 3 4 5
x 3
add to favorites
×
Save as Personal and add changes to this tab that will be seen only by you. Learn more ›
×
You can save this tab as Personal to edit and correct it or add notes. All changes will be seen only by you. Learn more »
launch autoscroll
font size
0
reset
how to read this tab
guitar tuner
edit
Autoscroll
slow
fast
+/-
esc
set tempo
stop
About this tab version
The tuning in this tab is the original of the song which gives it the characteristic sound of indie folk, you need the capo on the 7th fret. Was this info helpful? Yes No
Tuning: C4 G4 D5 G5 B5 D6

Lakeside Acoustic Session - https://www.youtube.com/watch?v=Cp-1t9B62zc

Chords:

GM9      Bm7     DM9/A      D
 0        0        0        0
 0        0        0        0
 0        0        0        0
 2        0        4        9
 0        4        2        7
 0        4        2        7

[Intro]

D|--9--------------|--5-----4--------|--9--------------|--5-----4--------|
B|--0--------------|--0-----0--------|--0--------------|--0-----0--------|
G|--0--------------|--0-----0--------|--0--------------|--0-----0--------|
D|--x--------------|--x-----x--------|--x--------------|--x-----x--------|
G|--x--------------|--x-----x--------|--x--------------|--x-----x--------|
C|--x--------------|--x-----x--------|--x--------------|--x-----x--------|


D|-----------------|-----------------|-----------------|-----------------|
B|-----------------|-----------------|-----------------|-----------------|
G|-----0--------0--|-----0--------0--|-----0--------0--|-----0--------0--|
D|-----------2-----|-----------2-----|-----------2-----|-----------2-----|
G|-----0-----------|-----0-----------|-----0-----------|-----0-----------|
C|--0-----0--------|--0-----0--------|--0-----0--------|--0-----0--------|

D|-----------------|-----------------|-----------------|-----------------|
B|-----------------|-----------------|-----------------|-----------------|
G|-----0--------0--|-----0--------0--|-----0--------0--|-----0--------0--|
D|-----------0-----|-----------0-----|-----------4-----|-----------4-----|
G|-----4-----------|-----4-----------|-----2-----------|-----2-----------|
C|--4-----4--------|--4-----4--------|--2-----2--------|--2-----2--------|


D|-----------------|-----------------|-----------------|-----------------|
B|-----------------|-----------------|-----------------|-----------------|
G|-----0--------0--|-----0--------0--|-----0--------0--|-----0--------0--|
D|-----------2-----|-----------2-----|-----------2-----|-----------2-----|
G|-----0-----------|-----0-----------|-----0-----------|-----0-----------|
C|--0-----0--------|--0-----0--------|--0-----0--------|--0-----0--------|

D|-----------------|-----------------|-----------------|-----------------|
B|-----------------|-----------------|-----------------|-----------------|
G|-----0--------0--|-----0--------0--|-----0--------0--|-----0--------0--|
D|-----------0-----|-----------0-----|-----------4-----|-----------4-----|
G|-----4-----------|-----4-----------|-----2-----------|-----2-----------|
C|--4-----4--------|--4-----4--------|--2-----2--------|--2-----2--------|
                                                                            
D|-----------------|-----------------|
B|-----------------|-----------------|
G|-----0--------0--|-----0--------0--|
D|-----------4-----|-----------4-----|
G|-----2-----------|-----2-----------|
C|--2-----2--------|--2-----2--------|

(Note: In this part extend 2 bars.)


[Verse]
  I'm leaving home for the Coastline
D|-----------------|-----------------|-----------------|-----------------|
B|-----------------|-----------------|-----------------|-----------------|
G|-----0--------0--|-----0--------0--|-----0--------0--|-----0--------0--|
D|-----------2-----|-----------2-----|-----------2-----|-----------2-----|
G|-----0-----------|-----0-----------|-----0-----------|-----0-----------|
C|--0-----0--------|--0-----0--------|--0-----0--------|--0-----0--------|

  Some place under                    the sun
D|-----------------|-----------------|-----------------|-----------------|
B|-----------------|-----------------|-----------------|-----------------|
G|-----0--------0--|-----0--------0--|-----0--------0--|-----0--------0--|
D|-----------0-----|-----------0-----|-----------4-----|-----------4-----|
G|-----4-----------|-----4-----------|-----2-----------|-----2-----------|
C|--4-----4--------|--4-----4--------|--2-----2--------|--2-----2--------|

  I feel my heart for the first time
D|-----------------|-----------------|-----------------|-----------------|
B|-----------------|-----------------|-----------------|-----------------|
G|-----0--------0--|-----0--------0--|-----0--------0--|-----0--------0--|
D|-----------2-----|-----------2-----|-----------2-----|-----------2-----|
G|-----0-----------|-----0-----------|-----0-----------|-----0-----------|
C|--0-----0--------|--0-----0--------|--0-----0--------|--0-----0--------|

  Cause now I'm moving                on yeah, I'm      mo .... ving
D|-----------------|-----------------|-----------------|-----------------|
B|-----------------|-----------------|-----------------|-----------------|
G|-----0--------0--|-----0--------0--|-----0--------0--|-----0-----0-----|
D|-----------0-----|-----------0-----|-----------4-----|-----------------|
G|-----4-----------|-----4-----------|-----2-----------|-----4-----2-----|
C|--4-----4--------|--4-----4--------|--2-----2--------|--4-----2--------|

  on
D|-----------------|-----------------|-----------------|-----------------|
B|-----------------|-----------------|-----------------|-----------------|
G|-----0--------0--|-----0--------0--|-----0--------0--|-----0--------0--|
D|-----------2-----|-----------2-----|-----------2-----|-----------4-----|
G|-----0-----------|-----0-----------|-----0-----------|-----2-----------|
C|--0-----0--------|--0-----0--------|--0-----0--------|--2-----2--------|


  And there's a place that I've dreamed of
D|-----------------|-----------------|-----------------|-----------------|
B|-----------------|-----------------|-----------------|-----------------|
G|-----0--------0--|-----0--------0--|-----0--------0--|-----0--------0--|
D|-----------2-----|-----------2-----|-----------2-----|-----------2-----|
G|-----0-----------|-----0-----------|-----0-----------|-----0-----------|
C|--0-----0--------|--0-----0--------|--0-----0--------|--0-----0--------|

  Where I can free my                 mind
D|-----------------|-----------------|-----------------|-----------------|
B|-----------------|-----------------|-----------------|-----------------|
G|-----0--------0--|-----0--------0--|-----0--------0--|-----0--------0--|
D|-----------0-----|-----------0-----|-----------4-----|-----------4-----|
G|-----4-----------|-----4-----------|-----2-----------|-----2-----------|
C|--4-----4--------|--4-----4--------|--2-----2--------|--2-----2--------|

  I hear the sounds of the season                       And lose
D|-----------------|-----------------|-----------------|-----------------|
B|-----------------|-----------------|-----------------|-----------------|
G|-----0--------0--|-----0--------0--|-----0--------0--|-----0--------0--|
D|-----------2-----|-----------2-----|-----------2-----|-----------2-----|
G|-----0-----------|-----0-----------|-----0-----------|-----0-----------|
C|--0-----0--------|--0-----0--------|--0-----0--------|--0-----0--------|

  all, sense of                       time
D|-----------------|-----------------|-----------------|--------------0--|
B|-----------------|-----------------|-----------------|-----------------|
G|-----0--------0--|-----0--------0--|-----0--------0--|-----0-----------|
D|-----------0-----|-----------0-----|-----------4-----|-----------4-----|
G|-----4-----------|-----4-----------|-----2-----------|-----2-----------|
C|--4-----4--------|--4-----4--------|--2-----2--------|--2-----2--------|

D|-----------------|-----------------|
B|-----------------|-----------------|
G|-----0--------0--|-----------------|
D|-----------4-----|-----------------|
G|-----2-----------|--2/4--2p0-------|
C|--2-----2--------|-----------------|


[Chorus]
  I'm moving far away
D|-----------------|-----------------|-----------------|-----------------|
B|-----------------|-----------------|-----------------|-----------------|
G|-----0--------0--|-----0--------0--|-----0--------0--|-----------------|
D|-----------2-----|-----------2-----|-----------2-----|-----------------|
G|-----0-----------|-----0-----------|-----0-----------|--2/4--2p0-------|
C|--0-----0--------|--0-----0--------|--0-----0--------|-----------------|

  To a sunny place
D|-----------------|-----------------|-----------------|-----------------|
B|-----------------|-----------------|-----------------|-----------------|
G|-----0--------0--|-----0--------0--|-----0--------0--|-----------------|
D|-----------0-----|-----------0-----|-----------0-----|-----------------|
G|-----4-----------|-----4-----------|-----4-----------|--2/4--2p0-------|
C|--4-----4--------|--4-----4--------|--4-----4--------|-----------------|

  Where it's just you and me
D|-----------------|-----------------|-----------------|-----------------|
B|-----------------|-----------------|-----------------|-----------------|
G|-----0--------0--|-----0--------0--|-----0--------0--|-----------------|
D|-----------2-----|-----------2-----|-----------2-----|-----------------|
G|-----0-----------|-----0-----------|-----0-----------|--2/4--2p0-------|
C|--0-----0--------|--0-----0--------|--0-----0--------|-----------------|

  Feels like we're in a               dream             You know what I
D|-----------------|-----------------|-----------------|--------------0--|
B|-----------------|-----------------|-----------------|-----------------|
G|-----0--------0--|-----0--------0--|-----0--------0--|-----0-----------|
D|-----------0-----|-----------0-----|-----------4-----|-----------9-----|
G|-----4-----------|-----4-----------|-----2-----------|-----7-----------|
C|--4-----4--------|--4-----4--------|--2-----2--------|--7-----7--------|

  mean
D|--2--------------|--2--------------|--2--------------|--4--------------|
B|-----------------|-----------------|-----------------|-----------------|
G|-----0--------0--|--------------0--|--------------0--|--------------0--|
D|-----------2-----|-----------2-----|-----------2-----|-----------2-----|
G|-----0-----------|-----0-----------|-----0-----------|-----0-----------|
C|--0-----0--------|--0-----0--------|--0-----0--------|--0-----0--------|

__________________________________________________________________________
(Note: In this part begins the strumming - Watch 1:52)     

STRUMMING PATTERN: DD UDU
__________________________________________________________________________

[Verse 2]

[GM9]
The summer air by the seaside

[Bm7]                [DM9/A]
The way it fills our lungs

[GM9]
The fire burns in the night sky

[Bm7]                  [DM9/A]     [Bm7] [DM9/A] [GM9] [DM9/A]
This life will keep us young yeah, keep  us      young


[GM9]
And we will sleep by the ocean

[Bm7]                         [DM9/A]
Our hearts will move with the tide

[GM9]
And we will wake in the morning, To see the

[Bm7]          [DM9/A]
sun, paint the sky

D|-----------------|
B|-----------------|
G|-----------------|
D|-----------------|
G|--2/4--2p0-------|
C|-----------------|

[Chorus]

[GM9]
I'm moving far away

D|-----------------|
B|-----------------|
G|-----------------|
D|-----------------|
G|--2/4--2p0-------|
C|-----------------||

[Bm7]      [DM9/A]
To a sunny place

D|-----------------|
B|-----------------|
G|-----------------|
D|-----------------|
G|--2/4--2p0-------|
C|-----------------|

[GM9]
Where it's just you and me

D|-----------------|
B|-----------------|
G|-----------------|
D|-----------------|
G|--2/4--2p0-------|
C|-----------------|

[Bm7]                 [DM9/A]
Feels like we're in a dream

[DM9/A] (Strumming changes to D D D)(Watch 2:55)
You   know what I mean

________________________________________________________
In this part the strumming changes to: D UD (Watch 2:58)
________________________________________________________

[GM9]
I'm moving far away

[Bm7]      [DM9/A]
To a sunny place

[GM9]
Where it's just you and me

[Bm7]                 [DM9/A]
Feels like we're in a dream

[DM9/A]
You know what I mean
 
I'm moving far away
D|-----------------|-----------------|-----------------|-----------------|
B|-----------------|-----------------|-----------------|-----------------|
G|-----0--------0--|-----0--------0--|-----0--------0--|-----------------|
D|-----------2-----|-----------2-----|-----------2-----|-----------------|
G|-----0-----------|-----0-----------|-----0-----------|--2/4--2p0-------|
C|--0-----0--------|--0-----0--------|--0-----0--------|-----------------|

  To a sunny place
D|-----------------|-----------------|-----------------|-----------------|
B|-----------------|-----------------|-----------------|-----------------|
G|-----0--------0--|-----0--------0--|-----0--------0--|-----------------|
D|-----------0-----|-----------0-----|-----------0-----|-----------------|
G|-----4-----------|-----4-----------|-----4-----------|--2/4--2p0-------|
C|--4-----4--------|--4-----4--------|--4-----4--------|-----------------|

  Where it's just you and me
D|-----------------|-----------------|-----------------|-----------------|
B|-----------------|-----------------|-----------------|-----------------|
G|-----0--------0--|-----0--------0--|-----0--------0--|-----------------|
D|-----------2-----|-----------2-----|-----------2-----|-----------------|
G|-----0-----------|-----0-----------|-----0-----------|--2/4--2p0-------|
C|--0-----0--------|--0-----0--------|--0-----0--------|-----------------|

  Feels like we're in a               dream             You know what I
D|-----------------|-----------------|-----------------|-----------------|
B|-----------------|-----------------|-----------------|-----------------|
G|-----0--------0--|-----0--------0--|-----0--------0--|-----0--------0--|
D|-----------0-----|-----------0-----|-----------4-----|-----------4-----|
G|-----4-----------|-----4-----------|-----2-----------|-----2-----------|
C|--4-----4--------|--4-----4--------|--2-----2--------|--2-----2--------|

  mean
D|--0--------------|
B|--0--------------|
G|--0--------------|
D|--2--------------|
G|--0--------------|
C|--0--------------|



************************************

| x  Dead note
| p  Pull-off
| /  Slide up

************************************

            
            
Suggest correction
Creating personal tab
Creating personal tab
You can edit any tab online and save it as your Personal.

You can edit, replace or remove any tab part or add personal notes – all changes will be seen only by you.

Personal tabs can be accessed anytime from any device, even offline.
Learn more »
Give kudos to tab author, rate the tab!
1 2 3 4 5
comments
print report bad tab
1 comment total.
+1 reply
brickmaster01 10 Aug 05, 2017 02:00 PM

You can see that he plays the 4th fret on the c string, not the open. Other than that, this is a great tab

guest
You may want to rate the tab now too:
select rating
Wanna post a correction for this tab? Suggest correction