Oops, an error
Loading. Please wait.

Heatwave tab

829 views 12 this week
no commentswrite comment
1 2 3 4 5
x 3
add to favorites
×
Save as Personal and add changes to this tab that will be seen only by you. Learn more ›
×
You can save this tab as Personal to edit and correct it or add notes. All changes will be seen only by you. Learn more »
launch autoscroll
font size
0
reset
how to read this tab
guitar tuner
edit
Autoscroll
slow
fast
+/-
esc
set tempo
stop
Author
Difficulty
-------------------------------------------------------------------------------
                           Hollow Coves - Heatwave
-------------------------------------------------------------------------------
Tabbed by: Stefan Premovic

Tuning: D#G#C#F#A#d

Intro:

d |-----------------------------------------------0------------------|
A#|------------------------------------------------------------------|
F#|-------4---------------8---------------1---------------1----------|G1
C#|---6-------6-------9-------9-------2-------2-------2-------2------|
G#|------------------------------------------------------------------|
D#|-4---4---4---4---7---7---7---7---0---0---0---0---0---0---0---0----|

d |-----------------------------------------------0------------------|
A#|------------------------------------------------------------------|
F#|-------4---------------3---------------1---------------1----------|G1
C#|---6-------6-------4-------4-------2-------2-------2-------2------|
G#|------------------------------------------------------------------|
D#|-4---4---4---4---2---2---2---2---0---0---0---0---0---0---0---0----|


Verse 1:

d |-----------------------------------------------0------------------|
A#|------------------------------------------------------------------|
F#|-------4---------------8---------------1---------------1----------|G1
C#|---6-------6-------9-------9-------2-------2-------2-------2------|
G#|------------------------------------------------------------------|\
D#|-4---4---4---4---7---7---7---7---0---0---0---0---0---0---0---0----| \
                                                                       x2
d |-----------------------------------------------0------------------| /
A#|------------------------------------------------------------------|/
F#|-------4---------------3---------------1---------------1----------|G1
C#|---6-------6-------4-------4-------2-------2-------2-------2------|
G#|------------------------------------------------------------------|
D#|-4---4---4---4---2---2---2---2---0---0---0---0---0---0---0---0----|


Instrumental 1:

d |-----------------------------------------------0------------------|
A#|------------------------------------------------------------------|
F#|-------4---------------8---------------1---------------1----------|G1
C#|---6-------6-------9-------9-------2-------2-------2-------2------|
G#|------------------------------------------------------------------|
D#|-4---4---4---4---7---7---7---7---0---0---0---0---0---0---0---0----|
  |                                                                  |
d |-------0-------------------------------3-------0-------3----------|
A#|-----------------------0------------------------------------------|
F#|---6-------6-------3-------3-------1-------1-------1-------1------|G2
C#|-6---------------4---------------2--------------------------------|
G#|------------------------------------------------------------------|
D#|------------------------------------------------------------------|


d |-----------------------------------------------0------------------|
A#|------------------------------------------------------------------|
F#|-------4---------------3---------------1---------------1----------|G1
C#|---6-------6-------4-------4-------2-------2-------2-------2------|
G#|------------------------------------------------------------------|
D#|-4---4---4---4---2---2---2---2---0---0---0---0---0---0---0---0----|
  |                                                                  |
d |-------0---------------------------------------0------------------|
A#|-----------------------0---------------0---------------0----------|
F#|---6-------6-------3-------3-------1-------1-------1-------1------|G2
C#|-6---------------4---------------2--------------------------------|
G#|------------------------------------------------------------------|
D#|------------------------------------------------------------------|


Verse 2:

d |-----------------------------------------------0------------------|
A#|------------------------------------------------------------------|
F#|-------4---------------8---------------1---------------1----------|G1
C#|---6-------6-------9-------9-------2-------2-------2-------2------|
G#|------------------------------------------------------------------|
D#|-4---4---4---4---7---7---7---7---0---0---0---0---0---0---0---0----|
  |                                                                  |
d |-------0-------------------------------3-------0-------3----------|
A#|-----------------------0------------------------------------------|
F#|---6-------6-------3-------3-------1-------1-------1-------1------|G2
C#|-6---------------4---------------2--------------------------------|\
G#|------------------------------------------------------------------| \
D#|------------------------------------------------------------------|  \
                                                                        x2
                                                                        /
d |-----------------------------------------------0------------------| / 
A#|------------------------------------------------------------------|/
F#|-------4---------------3---------------1---------------1----------|G1
C#|---6-------6-------4-------4-------2-------2-------2-------2------|
G#|------------------------------------------------------------------|
D#|-4---4---4---4---2---2---2---2---0---0---0---0---0---0---0---0----|
  |                                                                  |
d |-------0---------------------------------------0------------------|
A#|-----------------------0---------------0---------------0----------|
F#|---6-------6-------3-------3-------1-------1-------1-------1------|G2
C#|-6---------------4---------------2--------------------------------|
G#|------------------------------------------------------------------|
D#|------------------------------------------------------------------|


Chorus 1:
    v               v               v
d |------------------------------------------------------------------|
A#|------------------------------------------------------------------|
F#|-4---------------8---------------1--------------------------------|G1
C#|-6---------------9---------------2--------------------------------|
G#|-6---------------9---------------2--------------------------------|\
D#|-4---------------7---------------0--------------------------------| \
  |                                                          * ^v  ^ | x2
d |-------------------13--------------------------------------(xx--x)| /
A#|-----------------------------------------------------------(xx--x)|/
F#|--------------11/13----------------------------------------(xx--x)|G2
C#|-----------------------------------------------------------(xx--x)|
G#|-----------------------------------------------------------(xx--x)|
D#|-----------------------------------------------------------(xx--x)|
  (*) – on second repeat


Instrumental 2(strum away!!!):

    v  ^v  ^v  ^v  ^v  ^v  ^v  ^v  ^v  ^v  ^v  ^v  ^v  ^v  ^v  ^v  ^
d |-0---------------0---------------0--------------------------------|
A#|-0---------------0---------------0--------------------------------|
F#|-4---------------8---------------1--------------------------------|G1
C#|-6---------------9---------------2--------------------------------|
G#|-6---------------9---------------2--------------------------------|
D#|-4---------------7---------------0--------------------------------|

    v  ^v  ^v  ^v  ^v  ^v  ^v  ^v  ^v  ^v  ^v  ^v  ^v  ^v  ^v  ^v  ^
d |-0---------------0---------------0--------------------------------|
A#|-0---------------0---------------0--------------------------------|
F#|-4---------------3---------------1--------------------------------|G1
C#|-6---------------4---------------2--------------------------------|
G#|-6---------------4---------------2--------------------------------|
D#|-4---------------2---------------0--------------------------------|

------------------------------------------------------------------------
*NOTE – When the strumming part starts in some places you can hear added
        strums in chord transitions, choose where you want to add them.
        Here is the example of that strumming pattern:

    v  ^v  ^v  ^v^v ^  ^v  ^v  ^v^v ^  ^v  ^v  ^v  ^v  ^v  ^v  ^v  ^
d |-0---------------0---------------0--------------------------------|
A#|-0---------------0---------------0--------------------------------|
F#|-4---------------8---------------1--------------------------------|G1
C#|-6---------------9---------------2--------------------------------|
G#|-6---------------9---------------2--------------------------------|
D#|-4---------------7---------------0--------------------------------|
------------------------------------------------------------------------
 

Verse 3(G2 is not quite as in original, I made minimal changes to avoid
        unnecessary complications to the tab, still sounds great):
        
    v  ^v  ^v  ^v  ^v  ^v  ^v  ^v  ^v  ^v  ^v  ^v  ^v  ^v  ^v  ^v  ^
d |-0---------------0---------------0--------------------------------|
A#|-0---------------0---------------0--------------------------------|
F#|-4---------------8---------------1--------------------------------|G1
C#|-6---------------9---------------2--------------------------------|
G#|-6---------------9---------------2--------------------------------|
D#|-4---------------7---------------0--------------------------------|
  |                                                                  |
d |-------0---------------------------------------0------------------|
A#|-----------------------0---------------0---------------0----------|
F#|---6-------6-------3-------3-------1-------1-------1-------1------|G2
C#|-6---------------4---------------2--------------------------------|
G#|------------------------------------------------------------------|\
D#|------------------------------------------------------------------| \ 
                                                                        \
                                                                        x2
    v  ^v  ^v  ^v  ^v  ^v  ^v  ^v  ^v  ^v  ^v  ^v  ^v  ^v  ^v  ^v  ^    /
d |-0---------------0---------------0--------------------------------| /
A#|-0---------------0---------------0--------------------------------|/
F#|-4---------------3---------------1--------------------------------|G1
C#|-6---------------4---------------2--------------------------------|
G#|-6---------------4---------------2--------------------------------|
D#|-4---------------2---------------0--------------------------------|
  |                                                                  |
d |-------0-------------------------------0---------------0----------|
A#|-----------------------0-----------------------0------------------|
F#|---6-------6-------3-------3-------1-------1-------1-------1------|G2
C#|-6---------------4---------------2--------------------------------|
G#|------------------------------------------------------------------|
D#|------------------------------------------------------------------|


Chorus 2:
    v               v  ^v  ^v  ^v  ^v  ^v  ^v  ^v  ^v  ^v  ^v  ^v  ^
d |-0-----------x---0---------------0--------------------------------|
A#|-0-----------x---0---------------0--------------------------------|
F#|-4-----------x---8---------------1--------------------------------|G1
C#|-6-----------x---9---------------2--------------------------------|
G#|-6-----------x---9---------------2--------------------------------|
D#|-4-----------x---7---------------0--------------------------------|
  |                                                                  |
d |-------------------13--------------9------------------------------|
A#|------------------------------------------------------------------|
F#|--------------11/13------------7/9-----------------------------11/|G2
C#|------------------------------------------------------------------|
G#|------------------------------------------------------------------|
D#|------------------------------------------------------------------|

    v  ^v  ^v  ^v  ^v  ^v  ^v  ^v  ^v  ^v  ^v  ^v  ^v  ^v  ^v  ^v  ^
d |-0---------------0---------------0--------------------------------|
A#|-0---------------0---------------0--------------------------------|
F#|-4---------------8---------------1--------------------------------|G1
C#|-6---------------9---------------2--------------------------------|
G#|-6---------------9---------------2--------------------------------|\
D#|-4---------------7---------------0--------------------------------| \ 
  |                                                               *  | x3
d |---13--------------9---------------13-----------------------------| /
A#|------------------------------------------------------------------|/
F#|/13------------7/9------------11/13----------------------------11/|G2
C#|------------------------------------------------------------------|
G#|------------------------------------------------------------------|
D#|------------------------------------------------------------------|
  (*) – do not play on last repeat


Outro:
    v                       v       v                         
d |-0-----------------------0-------0--------------------------------|
A#|-0-----------------------0-------0--------------------------------|
F#|-4-----------------------3-------1--------------------------------|G1
C#|-6-----------------------4-------2--------------------------------|
G#|-6-----------------------4-------2--------------------------------|
D#|-4-----------------------2-------0--------------------------------|

    v                       v       v                          ^v  ^
d |-0-----------------------0-------0--------------------------xx--x-|
A#|-0-----------------------0-------0--------------------------xx--x-|
F#|-4-----------------------8-------1--------------------------xx--x-|G1
C#|-6-----------------------9-------2--------------------------xx--x-|
G#|-6-----------------------9-------2--------------------------xx--x-|
D#|-4-----------------------7-------0--------------------------xx--x-|
  |                                                                  |
d |------------------------------------------------------------------|
A#|------------------------------------------------------------------|
F#|---------------------------------------------------------------11/|G2
C#|------------------------------------------------------------------|
G#|------------------------------------------------------------------|
D#|------------------------------------------------------------------|

    v  ^v  ^v  ^v  ^v  ^v  ^v  ^v  ^v  ^v  ^v  ^v  ^v  ^v  ^v  ^v  ^
d |-0-----------------------0-------0--------------------------------|
A#|-0-----------------------0-------0--------------------------------|
F#|-4-----------------------3-------1--------------------------------|G1
C#|-6-----------------------4-------2--------------------------------|
G#|-6-----------------------4-------2--------------------------------|
D#|-4-----------------------2-------0--------------------------------|  
  |                                                                  | 
d |---13----------------------9--------------------------------------|
A#|---------------------------------0--------------------------------|
F#|/13--------------------7/9--------------------------------------7/|G2
C#|------------------------------------------------------------------|\
G#|------------------------------------------------------------------| \
D#|------------------------------------------------------------------|  \
                                                                        x3
    v                       v       v                                   /
d |-0-----------------------0-------0--------------------------------| /
A#|-0-----------------------0-------0--------------------------------|/
F#|-4-----------------------8-------1--------------------------------|G1
C#|-6-----------------------9-------2--------------------------------|
G#|-6-----------------------9-------2--------------------------------|
D#|-4-----------------------7-------0--------------------------------|
  |                                                                  | 
d |---9-----------------------8-------9------------------------------|
A#|------------------------------------------------------------------|
F#|/9---------------------6/8-----7/9-----------------------------11/|G2
C#|------------------------------------------------------------------|
G#|------------------------------------------------------------------|
D#|------------------------------------------------------------------|

************************************

| /   slide up
| x   Mute note
| v   Down strum
| ^   Up strum

************************************

Lyrics:

/Verse 1/
When I was a young boy,
I would dream of flying,
And I would fly my plane,
To you, each day,

/Instrumental 1/

/Verse 2/
It's funny how it changed,
From what we were those days,
I told that I loved you,
And you said you felt the same,

/Chorus 1/
But it was just a heatwave, (x2)

/Instrumental 2/

/Verse 3/
You leave me standing there,
After all of those years,
And I know it seems to be fine,
To leave this all behind,

/Chorus 2/
'Cause it was just a heatwave, (x4) 

/Outro/

            
            
Suggest correction
Creating personal tab
Creating personal tab
You can edit any tab online and save it as your Personal.

You can edit, replace or remove any tab part or add personal notes – all changes will be seen only by you.

Personal tabs can be accessed anytime from any device, even offline.
Learn more »
Give kudos to tab author, rate the tab!
1 2 3 4 5
comments
print report bad tab
guest
You may want to rate the tab now too:
select rating
Wanna post a correction for this tab? Suggest correction