Oops, an error
Loading. Please wait.

Ascension bass

16 views 1 this week
no commentswrite comment
1 2 3 4 5
1 last vote to show rating
add to favorites
×
Save as Personal and add changes to this tab that will be seen only by you. Learn more ›
×
You can save this tab as Personal to edit and correct it or add notes. All changes will be seen only by you. Learn more »
launch autoscroll
font size
0
reset
guitar tuner
edit
Autoscroll
slow
fast
+/-
esc
set tempo
stop
Ascension
Track written by Gary Barlow and recorded by Holly Johnson. Became 
The soundtrack to the film Eddie The Eagle. Released in March 2016.
Tab by bass50611. This is how I see the bass line and not exact as 
Original but it does fit.

Verse 1:  NO BASS

Chorus 1:
   As-cen-sion...just sky holding me.....Oh to rise like an angel..just to
G|------------------------------------------------------------------------|
D|------------------------------------------------------------------------|
A|--------------------2---------------------------------------------------|
E|-4--2---0---------------2-------4---2---------0-------------------------|

   Kiss every star...see the clouds silver lining...flying high and far
G|---------------------------------------------------------------------|
D|---------------------------------------------------------------------|
A|-6--------------------------6-----------------------------7----------|
E|---------------------------------------------------------------------|

   Oh As-cen-sion...That’s what I want    (Orchestral Break)
G|---------------------------------------|
D|---------------------------------------|
A|--------6---7------9-------------9-----|
E|----9----------------------------------|

Verse 2:
G|------------------------------------------------------------------------|
D|------------------------------------------------------------------------|
A|------------------------7--7--7--7--7--7--7--7---9--9--9--9--9--9--9--9-|
E|-4--4--4--4--4--4--4--4-------------------------------------------------|

G|----------------------------------------------------------------------|
D|----------------------------------------------------------------------|
A|-6--6--6--6--6--6--6--6------------------------7--7--7--7--7--7--7--7-|
E|------------------------4--4--4--4--4--4--4--4------------------------|

G|-------------------------------------------------|
D|-------------------------------------------------|
A|-9--9--9--9--9--9--9--9---6--6--6--6--6--6--6--6-|
E|-------------------------------------------------|

Pre-Chorus:
G|-----------------------------------------------|
D|-----------------------------------------------|
A|------------------------6--6--6--6--6--6--6--6-|
E|-9--9--9--9--9--9--9--9------------------------|

                                (Break)
G|---------------------------------------------------------------|
D|---------------------------------------------------------------|
A|-6--6--6--6--6--6--6--6---6-------------6--6--6--6--6--6--6--6-|
E|---------------------------------------------------------------|

Chorus 2:
G|------------------------------------------------------------------------|
D|------------------------------------------------------------------------|
A|--------------------------------------------------2--2--2--2------------|
E|-4--4--4--4---2--2--2--2---0--0--0--0--0--0--0--0------------2--2--2--2-|

G|------------------------------------------------------------------------|
D|------------------------------------------------------------------------|
A|------------------------7--7--7--7--7--7--7--7---6--6--6--6--6--6--6--6-|
E|-4--4--4--4--2--2--2--2-------------------------------------------------|

G|--------------------------------------------------------------|
D|--------------------------------------------------------------|
A|-6--6--6--6--6--6--6--6---7--7--7--7--7--7--7--6---4--4--4--4-|
E|--------------------------------------------------------------|

G|-----------------------------------------------------------------------|
D|-------------------------4--4--4--4-------------4--4--4--4-------------|
A|-6--6--6--6---7--7--7--7------------------------------------7--7--7--7-|
E|-------------------------------------4--4--4--4------------------------|

G|------------|
D|------------|
A|-6--6--6--6-|
E|------------|

Bridge:                                       (Play This Bit x2 and Break)
G|------------------------------------------------------------|
D|------------------------------------------------------------|
A|-------------7--------------7--------------7--------------7-|
E|-4--7---4--7----4--7---4--7----4--7---4--7----4--7---4--7---|

Interlude:
G|------------------------------------------------|
D|--------4-------------------9-----------6-------|
A|--------------7-------------------9-----------9-|
E|-4----------------------------------------------|

Pre-Chorus:
G|------------------------------------------------------------------------|
D|------------------------------------------------------------------------|
A|-7--7--7--7--7--7--7--7--6--6--6--6--6--6--6--6--6--6--6--6--6--6--6--6-|
E|------------------------------------------------------------------------|

G|-----------------------|
D|-----------------------|
A|-7--7--7--7--7--7--7--7|
E|-----------------------|

Chorus 3:
G|------------------------------------------------------------------------|
D|------------------------------------------------------------------------|
A|--------------------------------------------------2--2--2--2------------|
E|-4--4--4--4---2--2--2--2---0--0--0--0--0--0--0--0------------2--2--2--2-|

G|------------------------------------------------------------------------|
D|------------------------------------------------------------------------|
A|------------------------7--7--7--7--7--7--7--7---6--6--6--6--6--6--6--6-|
E|-4--4--4--4--2--2--2--2-------------------------------------------------|

G|--------------------------------------------------------------|
D|--------------------------------------------------------------|
A|-6--6--6--6--6--6--6--6---7--7--7--7--7--7--7--6---4--4--4--4-|
E|--------------------------------------------------------------|

G|-----------------------------------------------------------------------|
D|-------------------------4--4--4--4-------------4--4--4--4-------------|
A|-6--6--6--6---7--7--7--7------------------------------------7--7--7--7-|
E|-------------------------------------4--4--4--4------------------------|
               (Break – Orchestral Bit)       (End)
G|------------------------------------------------|
D|------------------------------------------------|
A|-6--6--6--6----11-------------------------------|
E|--------------------------------------------4---|


            
            
Suggest correction
Creating personal tab
Creating personal tab
You can edit any tab online and save it as your Personal.

You can edit, replace or remove any tab part or add personal notes – all changes will be seen only by you.

Personal tabs can be accessed anytime from any device, even offline.
Learn more »
Give kudos to tab author, rate the tab!
1 2 3 4 5
comments
print report bad tab
guest
You may want to rate the tab now too:
select rating
Wanna post a correction for this tab? Suggest correction