Oops, an error
Loading. Please wait.

Nothin On You chords

by hollyn
1,450 views 3 this week
no commentswrite comment
1 2 3 4 5
2 more votes to show rating
add to favorites
×
Save as Personal and add changes to this tab that will be seen only by you. Learn more ›
×
You can save this tab as Personal to edit and correct it or add notes. All changes will be seen only by you. Learn more »
launch autoscroll
font size
0
reset
transpose
0
reset
display chords
guitar tuner
edit
Autoscroll
slow
fast
+/-
esc
set tempo
stop
Strumming
There is no strumming pattern for this song yet. and get +5 IQ
-------------------------------------------------------------------------------
                             Nothing On You - Hollyn
-------------------------------------------------------------------------------

Tuning: Standard
Capo: 2
Album: Hollyn EP


This song consists of rap verses and plays on beats.
I listed down how to play some synth parts of the song.
You can play them instead of the chords.


You hear this one throughout the song:

e|--7-----------------|
B|----5---7-7-5-------|
G|--------------------|
D|--------------------|
A|--------------------|
E|--------------------|
 

[Intro]

Intro synth:

    E        E   B        C#m C#m        E   B   B  C#m C#m  
e|--0--------0---2---------4---4---------0---2---2---4---4--|
B|--0--------0---4---------5---5---------0---4---4---5---5--|
G|--1--------1---4---------6---6---------1---4---4---6---6--|
D|--2--------2---4---------6---6---------2---4---4---6---6--|
A|--2--------2---2---------4---4---------2---2---2---4---4--|
E|--0--------0---x---------x---x---------0---x---x---x---x--|

E      B                                         C#m
  When we are together we pop off like 4th of July
   B                                                          E
If we were apart, I still could still see the lights in the sky
    B
Oh, I've been around and around the world
         C#m           B
I never found anything better


[Verse - Play the synth here]

Verse synth:

    E   E     E   B     B      B  C#m C#m   C#m  B   B   A   A
e|--0---0-----0---2-----2------2---4---4-----4---2---2---0---0--|
B|--0---0-----0---4-----4------4---5---5-----5---4---4---2---2--|
G|--1---1-----1---4-----4------4---6---6-----6---4---4---2---2--|
D|--2---2-----2---4-----4------4---6---6-----6---4---4---2---2--|
A|--2---2-----2---2-----2------2---4---4-----4---2---2---0---0--|
E|--0---0-----0---x-----x------x---x---x-----x---x---x---x---x--|

I been kickin' it with you since back in Pre-K
And 'til now you always stayed with me
Everyday with me
Now I'm sittin' in the studio writin' to the track
And it's a throwback, thinkin' back 'bout your love for me
Why would I ever leave you?
I don't care what they say
Cause they gon' talk anyway
I don't care what they do
Cause they ain't got nothin' on
You got, you got that somethin' I'm wantin', I crave
Drivin' me insane, a place so amazin'
And people keep sayin' I'm crazy
But they ain't got nothin' on you


[Chorus]
E      B                                         C#m
  When we are together we pop off like 4th of July
   B                                                          E
If we were apart, I still could still see the lights in the sky
    B
Oh, I've been around and around the world
         C#m           B
I never found anything better
                                 E  B C#m
Cause they ain't got nothin' on you
B                    E             B C#m 
Ain't got nothin' on you, you, you
B                          E            B C#m
Ain't nothin' better than you, you, you
B                               E             B C#m
Cause they ain't got nothin' on you, you, you
B
They ain't got nothin' on...


[Verse 2 - Play the synth here]

    E   E     E   B     B      B  C#m C#m   C#m  B   B   A   A
e|--0---0-----0---2-----2------2---4---4-----4---2---2---0---0--|
B|--0---0-----0---4-----4------4---5---5-----5---4---4---2---2--|
G|--1---1-----1---4-----4------4---6---6-----6---4---4---2---2--|
D|--2---2-----2---4-----4------4---6---6-----6---4---4---2---2--|
A|--2---2-----2---2-----2------2---4---4-----4---2---2---0---0--|
E|--0---0-----0---x-----x------x---x---x-----x---x---x---x---x--|

Might have a million dollars in the bank
Thirty cars with the yacht on the lake
Just cause you got it don't mean you gotta flaunt it
He's the one who paid the price, yeah, He got it
Ain't nobody, ain't nobody gonna take it away
You're love is here to stay
Ain't nobody, ain't nobody gonna take me away

                              E   B C#m
Cause they ain't got nothin' on you
 B                               E  B C#m B
You ain't gotta love me, but you do

[Chorus]
E      B                                         C#m
  When we are together we pop off like 4th of July
   B                                                          E
If we were apart, I still could still see the lights in the sky
    B
Oh, I've been around and around the world
         C#m           B
I never found anything better
                                 E  B C#m
Cause they ain't got nothin' on you
B                    E             B C#m 
Ain't got nothin' on you, you, you
B                          E            B C#m
Ain't nothin' better than you, you, you
B                               E             B C#m
Cause they ain't got nothin' on you, you, you
B                                E  B C#m
Cause they ain't got nothin' on you
B                    E             B C#m 
Ain't got nothin' on you, you, you
B                          E            B C#m
Ain't nothin' better than you, you, you
B                               E             B C#m
Cause they ain't got nothin' on you, you, you
B
They ain't got nothin' on you 




Comment away. =)
-Ruf

            
            
Suggest correction
Creating personal tab
Creating personal tab
You can edit any tab online and save it as your Personal.

You can edit, replace or remove any tab part or add personal notes – all changes will be seen only by you.

Personal tabs can be accessed anytime from any device, even offline.
Learn more »
Give kudos to tab author, rate the tab!
1 2 3 4 5
comments
print report bad tab
guest
You may want to rate the tab now too:
select rating
Wanna post a correction for this tab? Suggest correction