Oops, an error
Loading. Please wait.

Love Idol chords

31 views 1 this week
no commentswrite comment
1 2 3 4 5
3 more votes to show rating
add to favorites
×
Save as Personal and add changes to this tab that will be seen only by you. Learn more ›
×
You can save this tab as Personal to edit and correct it or add notes. All changes will be seen only by you. Learn more »
launch autoscroll
font size
0
reset
transpose
0
reset
display chords
guitar tuner
edit
Autoscroll
slow
fast
+/-
esc
set tempo
stop
Author
Difficulty
Strumming
There is no strumming pattern for this song yet. and get +5 IQ
Song: Love Idol
Band: Hollywood Porn Stars
Album: Year Of The Tiger
Year: 2005
Tabber: beranger80@hotmail.com



Intro (0:00)

B Bm B Bm
Em D Em A
Em D Em A



Verse (0:27)

Em                          D
You know I'm back on the streets
                             Em       A
You know I'm black, I'm the "beat boy"
Em                          D
You know I'm always too late
                       Em  A
When I got to celebrate



Prechorus (0:46)

A                                  A# Em
You've got to move on my sweet girl
A                                  A# Em
You bring me down on my knees girl



Verse (0:56)

Em
I also forgot my name
D                         Em A
Talking to you, what a shame
Em
Thank god it was so easy
D                            Em A
You'd do anything to please me



Prechorus (1:14)

A                                  A# Em
You've got to move on my sweet girl
A                                  A# Em
You bring me down on my knees girl



Chorus (1:24)

Em                       G
I know you love me for sure (I know your touch is so pure)
Dm                          Am
When you dance in the streets (You do it to excite me)
Cm                           Gm                         A#
I find myself in your eyes (But they've seen some other guys)



Solo (1:40)

e------|-----|-----|-----|
b------|-----|-----|-----|
g------|-----|-----|-----|
d------|-----|-----|-----|
a------|--0--|-----|-----|
e--0---|-----|--0--|--3--|

e------|-----|--------------|------|
b--12--|--11-|----------12--|--15--|
g------|-----|--9-11-12-----|------|
d------|-----|--------------|------|
a------|--0--|--------------|------|
e--0---|-----|--0-----------|--3---|



Verse (1:57)

g-----------------------------|
d-----------------------------|
a--5-7--------------5---------|
e-------5-3--6-5--3----5-4-3--|
I'm always thinking about (you?), I'm in love there's no doubt girl

g----------------------------|
d----------------------------|
a--5-7--------------5--5-5-7-|
e-------5-3--6-5--3----------|


e-----------------------------|
b-----------------------------|
g--7-9--------------7---------|
d--7-9--7-5--8-7--5-7--7-6-5--|
a--5-7--7-5--8-7--5-5--7-6-5--|
e-------5-3--6-5--3----5-4-3--|
As long as I have you near, I promise to be sincere

e---------------------------|
b---------------------------|
g--7-9----------------7--7--|
d--7-9--7-5--8-7--5---7--7--|
a--5-7--7-5--8-7--5---5--5--|
e-------5-3--6-5--3---------|



Prechorus (2:15)

A                                  A# Em
You've got to move on my sweet girl
A                                  A# Em
You've got to show my your feet girl



Chorus(2:25)

Em                       G
I know you love me for sure (I know your touch is so pure)
Dm                          Am
When you dance in the streets (You do it to excite me)
Cm                           Gm                         A#
I find myself in your eyes (But they've seen some other guys)



Bridge (2:39)

B Bm B Bm



Outro (2:48)

e------|-----|-----|-----|
b------|-----|-----|-----|
g------|-----|-----|-----|
d------|-----|-----|-----|
a------|--0--|-----|-----|
e--0---|-----|--0--|--3--|
You gimme gimme Gimme gimme ah ah
You gimme gimme Gimme gimme ah 
You gimme gimme Gimme gimme ah ah
You gimme gimme Gimme gimme ah


e------|-----|--------------|------|
b--12--|--11-|----------12--|--15--|
g------|-----|--9-11-12-----|------|
d------|-----|--------------|------|
a------|--0--|--------------|------|
e--0---|-----|--0-----------|--3---|
You gimme gimme Gimme gimme ah ah
You gimme gimme Gimme gimme ah 
You gimme gimme Gimme gimme ah ah
You gimme gimme Gimme gimme ah


e------|-----|--------------|------|
b--12--|--11-|----------12--|--15--|
g------|-----|--9-11-12-----|------|
d------|-----|--------------|------|
a------|--0--|--------------|------|
e--0---|-----|--0-----------|--3---|
You gimme gimme Gimme gimme ah ah
You gimme gimme Gimme gimme ah 
You gimme gimme Gimme gimme ah ah
You gimme gimme Gimme gimme ah



End (3:16)

G G 

            
            
Suggest correction
Creating personal tab
Creating personal tab
You can edit any tab online and save it as your Personal.

You can edit, replace or remove any tab part or add personal notes – all changes will be seen only by you.

Personal tabs can be accessed anytime from any device, even offline.
Learn more »
Give kudos to tab author, rate the tab!
1 2 3 4 5
comments
print report bad tab
guest
You may want to rate the tab now too:
select rating
Wanna post a correction for this tab? Suggest correction