Oops, an error
Loading. Please wait.

Winona tab

101 views 1 this week
no commentswrite comment
1 2 3 4 5
3 more votes to show rating
add to favorites
×
Save as Personal and add changes to this tab that will be seen only by you. Learn more ›
×
You can save this tab as Personal to edit and correct it or add notes. All changes will be seen only by you. Learn more »
launch autoscroll
font size
0
reset
how to read this tab
guitar tuner
edit
Autoscroll
slow
fast
+/-
esc
set tempo
stop
Author
Difficulty
Song: Winona
Band: Hollywood Porn Stars
Album: Year Of The Tiger
Year: 2005
Tabber: beranger80@hotmail.com



Verse (0:07)

G              F#
Change to stay the same
                       Em
Write what you won't forget
            A
What life is about
G                F#
Stories on the walls
                   Em
Moments you don't regret
           A
Amnesy for all



Prechorus (0:34)

          Bm
So please come
         F#
Out and throw
           F#               Em
Out you scandalous thoughts

e--10-----|--9-----|--9-----|--7-----|
b-----12--|----12--|-----7--|-----7--|
g---------|--------|--------|--------|
d---------|--------|--------|--------|
a---------|--------|--------|--------|
e---------|--------|--------|--------|
        x4       x4       x4       x4
 


Chorus (0:43)

Bm            G
    When the light goes down
Em     A      G       F#
   We are, we are, we are,
       Em
Asking what we have done
Bm            G
    When the light goes down
Em       A               F#
    We are, we are, we are,
        Em
Asking what we have done
       G
Asking what we can do
            Em           F#
Should we stand up and run



Solo (1:14)

e--------------------------------|
b--------------------------------|
g---------11---------11----------|
d--9-12-9-----9-12-9----9-12-12--|
a--------------------------------|
e--------------------------------|

e------------------------------|
b------------------------------|
g---------9---------9----------|
d--8-11-8----8-11-8---8-11-11--|
a------------------------------|
e------------------------------|

e-------------------|-------------------|
b-------------------|--5-5-5-5-5-5-5-5--|
g--7-7-7-7-7-7-7-7--|--6-6-6-6-6-6-6-6--|
d-------------------|--7-7-7-7-7-7-7-7--|
a-------------------|--7-7-7-7-7-7-7-7--|
e-------------------|--5-5-5-5-5-5-5-5--|
                  x2                  x2



Verse (1:30)

G             F#
Talk about alcohol
                       Em
Bars are full of depressed
                   A
They don't need one more

G            F#
Talk about death
                        Em
You're obsessed by the time
           A
Optimistic role

e-------------|-------|------|---------|--------|
b-------------|-------|------|---------|--------|
g--7-6---6-7--|--7-6--|--11--|--12-----|--9-----|
d------9------|-------|------|-----16--|----11--|
a-------------|-------|------|---------|--------|
e-------------|-------|------|---------|--------|
           x4       x4               x8       x8



Prechorus (1:56)

        Bm         F# 
If you don't wanna dance
        F#                 Em
Please give this girl a chance

e--10-----|--9-----|--9-----|--7-----|
b-----12--|----12--|-----7--|-----7--|
g---------|--------|--------|--------|
d---------|--------|--------|--------|
a---------|--------|--------|--------|
e---------|--------|--------|--------|
        x4       x4       x4       x4



Chorus (2:07)

Bm            G
    When the light goes down
Em     A      G       F#
   We are, we are, we are,
       Em
Asking what we have done
Bm            G
    When the light goes down
Em       A             F#
    We are, we are, we are,
        Em
Asking what we have done
       G
Asking what we can do
            Em           F#
Should we stand up and run



Outro (2:35)

e--------------------------------|
b--------------------------------|
g---------11---------11----------|
d--9-12-9-----9-12-9----9-12-12--|
a--------------------------------|
e--------------------------------|

e------------------------------|
b------------------------------|
g---------9---------9----------|
d--8-11-8----8-11-8---8-11-11--|
a------------------------------|
e------------------------------|

e-------------------|-------------------|
b-------------------|--5-5-5-5-5-5-5-5--|
g--7-7-7-7-7-7-7-7--|--6-6-6-6-6-6-6-6--|
d-------------------|--7-7-7-7-7-7-7-7--|
a-------------------|--7-7-7-7-7-7-7-7--|
e-------------------|--5-5-5-5-5-5-5-5--|
                  x2                  x2

e--------------------------------|
b--------------------------------|
g---------11---------11----------|
d--9-12-9-----9-12-9----9-12-12--|
a--------------------------------|
e--------------------------------|

e------------------------------|
b------------------------------|
g---------9---------9----------|
d--8-11-8----8-11-8---8-11-11--|
a------------------------------|
e------------------------------|

e-------------------|-------------------|-----|-----|-----|
b-------------------|--5-5-5-5-5-5-5-5--|--5--|--3--|--2--|
g--7-7-7-7-7-7-7-7--|--6-6-6-6-6-6-6-6--|--6--|--4--|--3--|
d-------------------|--7-7-7-7-7-7-7-7--|--7--|--5--|--4--|
a-------------------|--7-7-7-7-7-7-7-7--|--7--|--5--|--4--|
e-------------------|--5-5-5-5-5-5-5-5--|--5--|--3--|--2--|
                  x2

            
            
Suggest correction
Creating personal tab
Creating personal tab
You can edit any tab online and save it as your Personal.

You can edit, replace or remove any tab part or add personal notes – all changes will be seen only by you.

Personal tabs can be accessed anytime from any device, even offline.
Learn more »
Give kudos to tab author, rate the tab!
1 2 3 4 5
comments
print report bad tab
guest
You may want to rate the tab now too:
select rating
Wanna post a correction for this tab? Suggest correction