Oops, an error
Loading. Please wait.

Another Way Out Bass

version 1
version 1

Whole song

Interactive

3,045 views 9 this week
2 commentsread comments
1 2 3 4 5
x 5
add to favorites
launch autoscroll
font size
0
reset
guitar tuner
×
Best way to learn
"Another Way Out"
Autoscroll
slow
fast
+/-
esc
set tempo
stop
Author
Tuning
G|-------------------------------------------------------------------|
D|o-----------------------------------------------------------------o|
A|o---0-0-0---0-0-0---3-3-3---3-3-3---------------------------------o|
D|------------------------------------2-2-2---2-2-2---2-2-2-2-2-2-2--|
    1 + 2 + 3 + 4 + 1 + 2 + 3 + 4 + 1 + 2 + 3 + 4 + 1 + 2 + 3 + 4 +

0:12 
G|-------------------------------------------------------------------|
D|o-----------------------------------------------------------------o|
A|o-0-0-0-0-0-0-0-0-3-3-3-3-3-3-3-3---------------------------------o|
D|----------------------------------2-2-2-2-2-2-2-2-2-2-2-2-2-2-2-2--|
    1 + 2 + 3 + 4 + 1 + 2 + 3 + 4 + 1 + 2 + 3 + 4 + 1 + 2 + 3 + 4 +

0:24
G|-------------------------------------------------------------------|
D|o-----------------------------------------------------------------o|
A|o-0-0-0-0-0-0-0-0-3-3-3-3-3-3-3-3---------------------------------o|
D|----------------------------------2-2-2-2-2-2-2-2-2-2-2-2-2-2-2-2--|
    1 + 2 + 3 + 4 + 1 + 2 + 3 + 4 + 1 + 2 + 3 + 4 + 1 + 2 + 3 + 4 +

0:37 
G|-----------------------------------------------------------------|
D|-----------------------------------------------------------------|
A|-0-0-0-0-0-0-0-0-3-3-3-3-3-3-3-3---------------------------------|
D|---------------------------------2-2-2-2-2-2-2-2-2-2-2-2-2-2-2-2-|
   1 + 2 + 3 + 4 + 1 + 2 + 3 + 4 + 1 + 2 + 3 + 4 + 1 + 2 + 3 + 4 +

G|-----------------------------------------------------------------|
D|-----------------------------------------------------------------|
A|-0-0-0-0-0-0-0-0-3-3-3-3-3-3-3-3---------------------------------|
D|---------------------------------2-2-2-2-2-2-2-2-----------------|
   1 + 2 + 3 + 4 + 1 + 2 + 3 + 4 + 1 + 2 + 3 + 4 + 1 + 2 + 3 + 4 +

0:50
G|-------------------------------------------------------------------|
D|o-----------------------------------------------------------------o|
A|o---0-0-0---0-0-0---3-3-3---3-3-3---------------------------------o|
D|------------------------------------2-2-2---2-2-2---2-2-2-2-2-2-2--|
    1 + 2 + 3 + 4 + 1 + 2 + 3 + 4 + 1 + 2 + 3 + 4 + 1 + 2 + 3 + 4 +

1:03
G|-------------------------------------------------------------------|
D|o-----------------------------------------------------------------o|
A|o-0-0-0-0-0-0-0-0-3-3-3-3-3-3-3-3---------------------------------o|
D|----------------------------------2-2-2-2-2-2-2-2-2-2-2-2-2-2-2-2--|
    1 + 2 + 3 + 4 + 1 + 2 + 3 + 4 + 1 + 2 + 3 + 4 + 1 + 2 + 3 + 4 +

1:16
G|-------------------------------------------------------------------|
D|o-----------------------------------------------------------------o|
A|o-0-0-0-0-0-0-0-0-3-3-3-3-3-3-3-3---------------------------------o|
D|----------------------------------2-2-2-2-2-2-2-2-2-2-2-2-2-2-2-2--|
    1 + 2 + 3 + 4 + 1 + 2 + 3 + 4 + 1 + 2 + 3 + 4 + 1 + 2 + 3 + 4 +

1:28
G|-----------------------------------------------------------------|
D|-----------------------------------------------------------------|
A|-0-0-0-0-0-0-0-0-3-3-3-3-3-3-3-3---------------------------------|
D|---------------------------------2-2-2-2-2-2-2-2-2-2-2-2-2-2-2-2-|
   1 + 2 + 3 + 4 + 1 + 2 + 3 + 4 + 1 + 2 + 3 + 4 + 1 + 2 + 3 + 4 +

G|-----------------------------------------------------------------|
D|-----------------------------------------------------------------|
A|-0-0-0-0-0-0-0-0-3-3-3-3-3-3-3-3---------------------------------|
D|---------------------------------2-2-2-2-2-2-2-2-\-------/-------|
   1 + 2 + 3 + 4 + 1 + 2 + 3 + 4 + 1 + 2 + 3 + 4 + 1 + 2 + 3 + 4 +

1:41
G|-------------------------------------------------------------------|
D|o-----------------------------------------------------------------o|
A|o---0-0-0---0-0-0---3-3-3---3-3-3---------------------------------o|
D|------------------------------------2-2-2---2-2-2---2-2-2-2-2-2-2--|
    1 + 2 + 3 + 4 + 1 + 2 + 3 + 4 + 1 + 2 + 3 + 4 + 1 + 2 + 3 + 4 +

1:54
G|-------------------------14------13------------------------------|
D|-----------------14----------------------------------------------|
A|-----------------------------------------------------------------|
D|-----------------------------------------------------------------|
   1 + 2 + 3 + 4 + 1 + 2 + 3 + 4 + 1 + 2 + 3 + 4 + 1 + 2 + 3 + 4 +

G|-17----------------------14------13------------------------------|
D|-----------------14----------------------------------------------|
A|-----------------------------------------------------------------|
D|-----------------------------------------------------------------|
   1 + 2 + 3 + 4 + 1 + 2 + 3 + 4 + 1 + 2 + 3 + 4 + 1 + 2 + 3 + 4 +

2:06
G|-----------------------------------------------------------------|
D|-----------------------------------------------------------------|
A|-----0-0-----0-0-----3-3-----3-3---------------------------------|
D|-------------------------------------2-2-----2-2-----2-2-2-2-2-2-|
   1 + 2 + 3 + 4 + 1 + 2 + 3 + 4 + 1 + 2 + 3 + 4 + 1 + 2 + 3 + 4 +

G|-----------------------------------------------------------------|
D|-----------------------------------------------------------------|
A|-----0-0-----0-0-----3-3-----3-3---------------------------------|
D|-------------------------------------2-2-----2-2-----------------|
   1 + 2 + 3 + 4 + 1 + 2 + 3 + 4 + 1 + 2 + 3 + 4 + 1 + 2 + 3 + 4 +

2:20
G|-------------------------------------------------------------------|
D|o-----------------------------------------------------------------o|
A|o---0-0-0---0-0-0---3-3-3---3-3-3---------------------------------o|
D|------------------------------------2-2-2---2-2-2---2-2-2-2-2-2-2--|
    1 + 2 + 3 + 4 + 1 + 2 + 3 + 4 + 1 + 2 + 3 + 4 + 1 + 2 + 3 + 4 +

2:33
G|-------------------------------------------------------------------|
D|o-----------------------------------------------------------------o|
A|o---0-0-0---0-0-0---3-3-3---3-3-3---------------------------------o|
D|------------------------------------2-2-2---2-2-2---2-2-2-2-2-2-2--|
    1 + 2 + 3 + 4 + 1 + 2 + 3 + 4 + 1 + 2 + 3 + 4 + 1 + 2 + 3 + 4 +
Tabbed by Dave Vucko
Suggest correction
comments
print report bad tab
2 comments total.
+1 reply
YOLOCAUST 10 May 12, 2014 10:46 AM

amazing
love it

0 reply
toddyV 672 Apr 30, 2016 12:40 PM

i wish this wasnt perfect... its repetitive

guest
You may want to rate the tab now too:
select rating
Wanna post a correction for this tab? Suggest correction