Oops, an error
Loading. Please wait.

Been To Hell Tab

version 1
version 1

Interactive

51,208 views 36 this week
5 commentsread comments
1 2 3 4 5
x 26
add to favorites
×
Save as Personal and add changes to this tab that will be seen only by you. Learn more ›
×
You can save this tab as Personal to edit and correct it or add notes. All changes will be seen only by you. Learn more »
save as personal
new!
launch autoscroll
font size
0
reset
how to read this tab
guitar tuner
backing track
0:00
0:00
Autoscroll
slow
fast
+/-
esc
set tempo
stop
Difficulty
Tuning
intermediate
D A D G B E
Ok guys so basically this song is REALLY easy to play and I just checked in to see if 
anybody ever tabbed it which has not happened ... So I decided to tab it for those whose 
ears weren't able to tab that AWESOME song !!

P-S- Dont forget to tune in Drop D

Intro & Main Riff :

e|-------------------------------------------------|
B|-------------------------------------------------|
G|-------------------------------------------------|
D|--2-x-2~-----9-7-5~--2-5-7~----------------------|
A|--2-x-2~-----9-7-5~--2-5-7~----------------------|
D|--2-x-2~-----9-7-5~--2-5-7~----------------------|


Verse :

figure 1
e|-------------------------------------------------|
B|-------------------------------------------------|
G|-------------------------------------------------|
D|---222-----222~--x-x-----------------------------|
A|---222--x3-222~--x-x-----------------------------|
D|---222-----222~--x-x-----------------------------|

figure 2

e|-------------------------------------------------|
B|-------------------------------------------------|
G|------------------------------x-x-x-x------------|
D|--222-------------------222~--x-x-x-x------------|
A|--222-2-0-------0---x3--222~--x-x-x-x------------|
D|--222-----5~-2-5--------222~--x-x-x-x------------|

Chorus :


e|-------------------------------------------------|
B|-------------------------------------------------|
G|-------------------------------------------------|
D|--222~-22/5-55-0~-000--222~-22/5-55-7~-777-------|x2
A|--222~-22/5-55-0~-000--222~-22/5-55-7~-777-------|
D|--222~-22/5-55-0~-000--222~-22/5-55-7~-777-------|

THATS IT !!! ROCK ON TILL AMERICAN TREAGY HITS YOUR FACE !!!
Suggest correction
comments
print report bad tab
5 comments total. Showing first comments.
+2 reply
NLG acolyte 10 Feb 22, 2013 09:18 AM

Am I the only one who feels stressed when you have to do the "Intro and Main riff" part? It sounds right, but it's stressing, and it won't sound good.

+1 reply
liam.crookes125 10 Jan 18, 2014 08:08 AM

i found the same, i think it sounds a little better when played

e|----------------------------------------------------|
B|----------------------------------------------------|
G|----------------------------------------------------|
D|--2-x-2~----(7)-9-7-5~--2-5-7~----------------------|
A|--2-x-2~----(7)-9-7-5~--2-5-7~----------------------|
D|--2-x-2~----(7)-9-7-5~--2-5-7~----------------------|

brackets are my addition to the tab hope this helps

+1 reply
PiercedBand 811 Nov 03, 2014 11:51 AM

I wouldn't say this is an intermediate tab, I'd go with novice. Good tab

guest
Wanna post a correction for this tab? Suggest correction