Oops, an error
Loading. Please wait.

Been To Hell Bass Tab

version 2
version 2

Whole song

Interactive

649 views 3 this week
no commentswrite comment
1 2 3 4 5
2 more votes to show rating
add to favorites
launch autoscroll
font size
0
reset
guitar tuner
Autoscroll
slow
fast
+/-
esc
set tempo
stop
Help us to improve Ultimate-Guitar.com Take our survey!
×
Author
Difficulty
Intro/after chorus/about mid verse (listen in the background)
G-------------------------|
D-------------------------|
A------2-0----------------|
E--00------3---0-3-5------|

G-------------------------|
D-------------------------|
A-------------------------|
E---000-------------------|

Chorus (x2)
G----------------------------------------|
D----------------------------------------|
A----------------------------------------|
E-0-0-0-0-0-0-0-0-3----3-3-3-5-5-5-------| x3

G----------------------------------------|
D----------------------------------------|
A----------------------------------------|
E-0-0-0-0-0-0-0-0-3----3-3-3-7-7-7-------|
Suggest correction
Give kudos to tab author, rate the tab!
1 2 3 4 5
comments
print report bad tab
guest
You may want to rate the tab now too:
select rating
Wanna post a correction for this tab? Suggest correction