Oops, an error
Loading. Please wait.

Been To Hell Bass Tab

version 3
version 3

Whole song

Interactive

1,408 views 3 this week
no commentswrite comment
1 2 3 4 5
1 last vote to show rating
add to favorites
launch autoscroll
font size
0
reset
guitar tuner
Autoscroll
slow
fast
+/-
esc
set tempo
stop
Help us to improve Ultimate-Guitar.com Take our survey!
×
Author
Difficulty
Tuning
novice
D A D G B E
0:06 Intro
G|-------------------------------------------------------------------|
D|o-----------------------------------------------------------------o|
A|o-----------2-0-------------0-0-------------2-0-------------0-0---o|
D|--2---2---------5-------2-5-------2---2---------5-------2-5--------|
    1 + 2 + 3 + 4 + 1 + 2 + 3 + 4 + 1 + 2 + 3 + 4 + 1 + 2 + 3 + 4 +

0:18 Verse
G|-------------------------------------------------------------------|
D|o-----------------------------------------------------------------o|
A|o-----------------------------------------------------------------o|x4
D|--2-2-2---------------------------2-2-2----------------------------|
    1 + 2 + 3 + 4 + 1 + 2 + 3 + 4 + 1 + 2 + 3 + 4 + 1 + 2 + 3 + 4 +

0:44 Chorus
G|-------------------------------------------------------------------|
D|o-----------------------------------------------------------------o|
A|o-----------------------------------------------------------------o|x4
D|--2-2-2---2-2---5---5-5-0-0-0-0-0-2-2-2---2-2---5---5-5-7-7-7-7-7--|
    1 + 2 + 3 + 4 + 1 + 2 + 3 + 4 + 1 + 2 + 3 + 4 + 1 + 2 + 3 + 4 +

1:10 Interlude
G|-----------------------------------------------------------------|
D|-----------------------------------------------------------------|
A|-----------2-0-------------0-0-------------2-0-------------0-0---|
D|-2---2---------5-------2-5-------2---2---------5-------2-5-------|
   1 + 2 + 3 + 4 + 1 + 2 + 3 + 4 + 1 + 2 + 3 + 4 + 1 + 2 + 3 + 4 +

1:17 Verse
G|-------------------------------------------------------------------|
D|o-----------------------------------------------------------------o|
A|o-----------------------------------------------------------------o|x4
D|--2-2-2---------------------------2-2-2----------------------------|
    1 + 2 + 3 + 4 + 1 + 2 + 3 + 4 + 1 + 2 + 3 + 4 + 1 + 2 + 3 + 4 +

1:42
G|-------------------------------------------------------------------|
D|o-----------------------------------------------------------------o|
A|o-----------------------------------------------------------------o|x3
D|--2-2-2---2-2---5---5-5-0-0-0-0-0-2-2-2---2-2---5---5-5-7-7-7-7-7--|
    1 + 2 + 3 + 4 + 1 + 2 + 3 + 4 + 1 + 2 + 3 + 4 + 1 + 2 + 3 + 4 +

G|-----------------------------------------------------------------|
D|-----------------------------------------------------------------|
A|-----------------------------------------------------------------|
D|-2-2-2---2-2---5---5-5-0-0-0-0-0-2-2-2---2-2---5---5-5-7-7-7-/-\-|
   1 + 2 + 3 + 4 + 1 + 2 + 3 + 4 + 1 + 2 + 3 + 4 + 1 + 2 + 3 + 4 +

2:08 Interlude
G|-----------------------------------------------------------------|
D|-----------------------------------------------------------------|
A|-----------2-0-------------0-0-------------2-0-------------0-0---|
D|-2---2---------5-------2-5-------2---2---------5-------2-5-------|
   1 + 2 + 3 + 4 + 1 + 2 + 3 + 4 + 1 + 2 + 3 + 4 + 1 + 2 + 3 + 4 +

2:15 Verse
G|-------------------------------------------------------------------|
D|o-----------------------------------------------------------------o|
A|o-----------------------------------------------------------------o|x4
D|--2-2-2---------------------------2-2-2----------------------------|
    1 + 2 + 3 + 4 + 1 + 2 + 3 + 4 + 1 + 2 + 3 + 4 + 1 + 2 + 3 + 4 +

2:40 Chorus
G|-------------------------------------------------------------------|
D|o-----------------------------------------------------------------o|
A|o-----------------------------------------------------------------o|x4
D|--2-2-2---2-2---5---5-5-0-0-0-0-0-2-2-2---2-2---5---5-5-7-7-7-7-7--|
    1 + 2 + 3 + 4 + 1 + 2 + 3 + 4 + 1 + 2 + 3 + 4 + 1 + 2 + 3 + 4 +

3:06 Outro
G|-------------------------------------------------------------------|---------|
D|o-----------------------------------------------------------------o|---------|
A|o-----------2-0-------------0-0-------------2-0-------------0-0---o|---------|
D|--2---2---------5-------2-5-------2---2---------5-------2-5--------|-2---2---|
    1 + 2 + 3 + 4 + 1 + 2 + 3 + 4 + 1 + 2 + 3 + 4 + 1 + 2 + 3 + 4 +
Tabbed by Dave Vucko
Suggest correction
Give kudos to tab author, rate the tab!
1 2 3 4 5
comments
print report bad tab
guest
You may want to rate the tab now too:
select rating
Wanna post a correction for this tab? Suggest correction