Oops, an error
Loading. Please wait.

Been To Hell Tab

version 3
version 3

Interactive

1,356 views 1 this week
no commentswrite comment
1 2 3 4 5
please rate
add to favorites
launch autoscroll
font size
0
reset
how to read this tab
guitar tuner
Autoscroll
slow
fast
+/-
esc
set tempo
stop
Help us to improve Ultimate-Guitar.com Take our survey!
×
Author
Difficulty
Tuning
novice
D A D G B E
This Tab Is 100% Correct. If You Are Not Sure Watch The Music Video, You'll See 
The Exact Frets Bein' Hit


Intro: E-----------------------|
       B-----------------------|
       G-----------------------|
       D--2-2--3-----5~--5-77--|
       A--2-2--3-2-0-5~--5-77--|
       D--2-2--3-----5~--5-77--|

Verse 1: Part 1

         E---------------------|
         B---------------------|
         G---------------------|
         D--222------222~--xxx-|
         A--222--x3--222~--xxx-|
         D--222------222~--xxx-|

         Part 2

         E------------------------------------------------|
         B------------------------------------------------|
         G------------------------------------------------|
         D--222-------------222-------------------222~--xx|
         A--222-----2-0-----222-----2-0-----------222~--xx|
         D--222---3-----5---222---3-----5--5-7----222~--xxx|

(Repeat Until First Part Of Part 2 Is Played Twice Than Skip To The Last Part Of Part 2)

Chorus: e|---------------------------------------------|
        B|---------------------------------------------|
        G|---------------------------------------------|
        D|--222~-22/5-55-0000--222~-22/5-55-7777-------|x2
        A|--222~-22/5-55-0000--222~-22/5-55-7777-------|
        D|--222~-22/5-55-0000--222~-22/5-55-7777-------|


(For Verse 2&3 Just Play The Second Part Of Verse 1 Until It's Over)

Outro: E------------------------------------------------|
       B------------------------------------------------|
       G------------------------------------------------|
       D--2-2--3-----5~--5-77-----222~-22/5-55-7777--2-2|
       A--2-2--3-2-0-5~--5-77-x3--222~-22/5-55-7777--2-2|
       D--2-2--3-----5~--5-77-----222~-22/5-55-7777--2-2|

Suggest correction
What's this?
You can suggest a correction to this tab. Community and Mods will review your correction and vote to approve or reject it.
comments
We did not receive enough feedback on this tab! Please rate:
print report bad tab
1 2 3 4 5
guest
You may want to rate the tab now too:
select rating
Please do not post tabs as comments. Select "correction" instead!