Oops, an error
Loading. Please wait.

Been To Hell Tab

version 4
version 4

Intro

Interactive

6,923 views 21 this week
1 commentread comment
1 2 3 4 5
excellent!
x 6
add to favorites
launch autoscroll
font size
0
reset
how to read this tab
guitar tuner
Tab Pro tools
  • play this tab
  • loop segment
  • change instrument
  • show fretboard
  • metronome
Autoscroll
slow
fast
+/-
esc
set tempo
stop
Contributor
Difficulty
Tuning
novice
D A D G B E
----------------------------------------------------------------------------
                                 Been To Hell
                               Hollywood Undead
----------------------------------------------------------------------------

Alright! This song is so beast that I just had to make the guitar tab for it. The main 
riff is to cool, and the lyrics make me want to “    ” (you can fill in the blank). Also, 
I made a guitar cover, so if you want, go check it out and tell me how I did. Enjoy!

Username: dkm817 (same on X box live)
Lyrics made by: http://www.youtube.com/watch?v=uXRmK_72ifA
Youtube Guitar Cover: http://www.youtube.com/watch?v=Vq1qrDudaHI
Email: guitardrums@rockfan.com

(Tab Legend at bottom)
Guitar 1 Rhythmic (D A D G B E)
Guitar 2 Lead     (D A D G B E)

Intro 1

Guitar 1 (Fade In)
E---------------------------------|---------------------------------|
B---------------------------------|---------------------------------|
G---------------------------------|---------------------------------|
D---------------------------------|-2~~~~~~~~~~~~~~~~~~~~~~~~~~~~~~-|
A---------------------------------|---------------------------------|
D---------------------------------|---------------------------------|

Guitar 2 (Fade In)
E---------------------------------|---------------------------------|
B---------------------------------|-5~~~~~~~~~~~~~~~~~~~~~~~~~~~~~~-|
G---------------------------------|---------------------------------|
D---------------------------------|---------------------------------|
A---------------------------------|---------------------------------|
D---------------------------------|---------------------------------|

Intro 2 x4

Guitar 1
E---------------------------------|---------------------------------|
B---------------------------------|---------------------------------|
G---------------------------------|---------------------------------|
D-2~--2~~~------------------------|-2~--2~~~------------------------|
A-2~--2~~~------------------------|-2~--2~~~------------------------|
D-2~--2~~~------------------------|-2~--2~~~------------------------|

Guitar 2
E---------------------------------|---------------------------------|
B---------------------------------|---------------------------------|
G---------------------------------|---------------------------------|
D-2~--2~~~-2-9-7-5~~~~~-2-5-7-7~~-|-2~--2~~~-2-9-7-5~~~~~-2-5-7-7~~-|
A-2~--2~~~-2-9-7-5~~~~~-2-5-7-7~~-|-2~--2~~~-2-9-7-5~~~~~-2-5-7-7~~-|
D-2~--2~~~-2-9-7-5~~~~~-2-5-7-7~~-|-2~--2~~~-2-9-7-5~~~~~-2-5-7-7~~-|

Verse 1

Guitar 1 & 2 “Welcome To A City That’ll Bring You To Your Knees...”
E---------------------------------|---------------------------------|
B---------------------------------|---------------------------------|
G---------------------------------|---------------------------------|
D-2-2-2~~~------------------------|-2-2-2~~~------------------------|
A-2-2-2~~~------------------------|-2-2-2~~~------------------------|
D-2-2-2~~~------------------------|-2-2-2~~~------------------------|

Guitar 1 & 2 “Your Blindfold Is So Tight, But You Like What You See...”
E---------------------------------|---------------------------------|
B---------------------------------|---------------------------------|
G---------------------------------|---------------------------------|
D-2-2-2~~~------------------------|-2-2-2~~~2~~~~~~~~~~~~~~-----x-x-|
A-2-2-2~~~------------------------|-2-2-2~~~2~~~~~~~~~~~~~~-----x-x-|
D-2-2-2~~~------------------------|-2-2-2~~~2~~~~~~~~~~~~~~-----x-x-|

Guitar 1 “We’re Rollin’ Down The Boulevard, Full Of Pimps And Sharks...”
E---------------------------------|---------------------------------|
B---------------------------------|---------------------------------|
G---------------------------------|---------------------------------|
D-2-2-2~~~------------------------|-2-2-2~~~------------------------|
A-2-2-2~~~------------------------|-2-2-2~~~------------------------|
D-2-2-2~~~------------------------|-2-2-2~~~------------------------|

Guitar 2
E---------------------------------|---------------------------------|
B---------------------------------|---------------------------------|
G---------------------------------|---------------------------------|
D-2-2-2~~~------------------------|-2-2-2~~~------------------------|
A-2-2-2~~~------------------------|-2-2-2~~~------------------------|
D-2-2-2~~~-2-9-7-5~~~~~-2---------|-2-2-2~~~-2-9-7-5~~~~~-2-5-7-7~~-|
Pm         . . . .      .                    . . . .      . . . .

Guitar 1 “You Better Grab A Hold Cuz Now You Know Your Falling Apart...”
E---------------------------------|---------------------------------|
B---------------------------------|---------------------------------|
G---------------------------------|---------------------------------|
D-0-0-2~~~------------------------|-2-2-2~~~2~~~~~~~~~~~~~~-x-x-x-x-|
A-0-0-2~~~------------------------|-2-2-2~~~2~~~~~~~~~~~~~~-x-x-x-x-|
D-0-0-2~~~------------------------|-2-2-2~~~2~~~~~~~~~~~~~~-x-x-x-x-|

Guitar 2
E---------------------------------|---------------------------------|
B---------------------------------|---------------------------------|
G---------------------------------|---------------------------------|
D-0-0-2~~~------------------------|-2-2-2~~~2~~~~~~~~~~~~~~-x-x-x-x-|
A-0-0-2~~~------------------------|-2-2-2~~~2~~~~~~~~~~~~~~-x-x-x-x-|
D-0-0-2~~~-2-9-7-5~~~~~-2---------|-2-2-2~~~2~~~~~~~~~~~~~~-x-x-x-x-|
Pm         . . . .      .

Chorus x2

Guitar 1 “Been to Hell! I Can Show You The Devil...”
E---------------------------------|---------------------------------|
B---------------------------------|---------------------------------|
G---------------------------------|---------------------------------|
D-2-2-2~~-2-2-2-5~~-5-5-0~~-0-0~~-|-2-2-2~~-2-2-2-5~~-5-5-7~~-7-7~~-|
A-2-2-2~~-2-2-2-5~~-5-5-0~~-0-0~~-|-2-2-2~~-2-2-2-5~~-5-5-7~~-7-7~~-|
D-2-2-2~~-2-2-2-5~~-5-5-0~~-0-0~~-|-2-2-2~~-2-2-2-5~~-5-5-7~~-7-7~~-|

Guitar 2
E---------------------------------|---------------------------------|
B---------------------------------|---------------------------------|
G-9-9-9~~-9-9-9-12~-121214~-1414~-|-9-9-9~~-9-9-9-12~-121214~-1414~-|
D-x-x-x---x-x-x-x---x-x-x---x-x---|-x-x-x---x-x-x-x---x-x-x---x-x---|
A-7-7-7~~-7-7-7-10~-101012~-1212~-|-7-7-7~~-7-7-7-10~-101012~-1212~-|
D---------------------------------|---------------------------------|

Guitar 1 “Soul To Sell! Down Here You Live Forever...”
E---------------------------------|---------------------------------|
B---------------------------------|---------------------------------|
G---------------------------------|---------------------------------|
D-2-2-2~~-2-2-2-5~~-5-5-0~~-0-0~~-|-2-2-2~~-2-2-2-5~~-5-5-7~~-7-7~~-|
A-2-2-2~~-2-2-2-5~~-5-5-0~~-0-0~~-|-2-2-2~~-2-2-2-5~~-5-5-7~~-7-7~~-|
D-2-2-2~~-2-2-2-5~~-5-5-0~~-0-0~~-|-2-2-2~~-2-2-2-5~~-5-5-7~~-7-7~~-|

Guitar 2
E---------------------------------|---------------------------------|
B---------------------------------|---------------------------------|
G-9-9-9~~-9-9-9-12~-121214~-1414~-|-9-9-9~~-9-9-9-12~-121214~-1414~-|
D-x-x-x---x-x-x-x---x-x-x---x-x---|-x-x-x---x-x-x-x---x-x-x---x-x---|
A-7-7-7~~-7-7-7-10~-101012~-1212~-|-7-7-7~~-7-7-7-10~-101012~-1212~-|
D---------------------------------|---------------------------------|

Break Off 1

Guitar 1 “Welcome...”
E---------------------------------|---------------------------------|
B---------------------------------|---------------------------------|
G---------------------------------|---------------------------------|
D-2~--2~~~------------------------|-2~--2~~~------------------------|
A-2~--2~~~------------------------|-2~--2~~~------------------------|
D-2~--2~~~------------------------|-2~--2~~~------------------------|

Guitar 2
E---------------------------------|---------------------------------|
B---------------------------------|---------------------------------|
G---------------------------------|---------------------------------|
D-2~--2~~~-2-9-7-5~~~~~-2-5-7-7~~-|-2~--2~~~-2-9-7-5~~~~~-2-5-7-7~~-|
A-2~--2~~~-2-9-7-5~~~~~-2-5-7-7~~-|-2~--2~~~-2-9-7-5~~~~~-2-5-7-7~~-|
D-2~--2~~~-2-9-7-5~~~~~-2-5-7-7~~-|-2~--2~~~-2-9-7-5~~~~~-2-5-7-7~~-|

Verse 2

Guitar 1 “In The Belly Of The Beast, I’m A Wolf Amongst The Sheep...”
E---------------------------------|---------------------------------|
B---------------------------------|---------------------------------|
G---------------------------------|---------------------------------|
D-2-2-2~~~------------------------|-2-2-2~~~------------------------|
A-2-2-2~~~------------------------|-2-2-2~~~------------------------|
D-2-2-2~~~------------------------|-2-2-2~~~------------------------|

Guitar 2
E---------------------------------|---------------------------------|
B---------------------------------|---------------------------------|
G---------------------------------|---------------------------------|
D-2-2-2~~~------------------------|-2-2-2~~~------------------------|
A-2-2-2~~~------------------------|-2-2-2~~~------------------------|
D-2-2-2~~~-2-9-7-5~~~~~-2---------|-2-2-2~~~-2-9-7-5~~~~~-2---------|
Pm         . . . .      .                    . . . .      .

Guitar 1 “Above The Boulevard, Schoolyard, Victim Of Deceit...”
E---------------------------------|---------------------------------|
B---------------------------------|---------------------------------|
G---------------------------------|---------------------------------|
D-2-2-2~~~------------------------|-2-2-2~~~2~~~~~~~~~~~~~~-----x-x-|
A-2-2-2~~~------------------------|-2-2-2~~~2~~~~~~~~~~~~~~-----x-x-|
D-2-2-2~~~------------------------|-2-2-2~~~2~~~~~~~~~~~~~~-----x-x-|

Guitar 2
E---------------------------------|---------------------------------|
B---------------------------------|---------------------------------|
G---------------------------------|---------------------------------|
D-2-2-2~~~------------------------|-2-2-2~~~2~~~~~~~~~~~~~~-----x-x-|
A-2-2-2~~~------------------------|-2-2-2~~~2~~~~~~~~~~~~~~-----x-x-|
D-2-2-2~~~-2-9-7-5~~~~~-2---------|-2-2-2~~~2~~~~~~~~~~~~~~-----x-x-|
Pm         . . . .      .

Guitar 1 “Ya You’ve Seen It All Before, But The Wolf’s Outside Your Door...”
E---------------------------------|---------------------------------|
B---------------------------------|---------------------------------|
G---------------------------------|---------------------------------|
D-2-2-2~~~------------------------|-2-2-2~~~------------------------|
A-2-2-2~~~------------------------|-2-2-2~~~------------------------|
D-2-2-2~~~------------------------|-2-2-2~~~------------------------|

Guitar 2
E---------------------------------|---------------------------------|
B---------------------------------|---------------------------------|
G---------------------------------|---------------------------------|
D-2-2-2~~~------------------------|-2-2-2~~~------------------------|
A-2-2-2~~~------------------------|-2-2-2~~~------------------------|
D-2-2-2~~~-2-9-7-5~~~~~-2---------|-2-2-2~~~-2-9-7-5~~~~~-2-5-7-7~~-|
Pm         . . . .      .                    . . . .      . . . .

Guitar 1 “Another Victim Of The Star Spangled Banner Of The Street...”
E---------------------------------|---------------------------------|
B---------------------------------|---------------------------------|
G---------------------------------|---------------------------------|
D-0-0-2~~~------------------------|-2-2-2~~~2~~~~-------------x-x-x-|
A-0-0-2~~~------------------------|-2-2-2~~~2~~~~-------------x-x-x-|
D-0-0-2~~~------------------------|-2-2-2~~~2~~~~-------------x-x-x-|

Guitar 2                           |     Wah     |
E---------------------------------||-------------|------------------|
B---------------------------------||-------------|------------------|
G---------------------------------||-------------|------------------|
D-0-0-2~~~------------------------||2-2-2~~~2~~~~|------------x-x-x-|
A-0-0-2~~~------------------------||2-2-2~~~2~~~~|------------x-x-x-|
D-0-0-2~~~-2-9-7-5~~~~~-2---------||2-2-2~~~2~~~~|------------x-x-x-|

Chorus x2

Guitar 1 “Been to Hell! I Can Show You The Devil...”
E---------------------------------|---------------------------------|
B---------------------------------|---------------------------------|
G---------------------------------|---------------------------------|
D-2-2-2~~-2-2-2-5~~-5-5-0~~-0-0~~-|-2-2-2~~-2-2-2-5~~-5-5-7~~-7-7~~-|
A-2-2-2~~-2-2-2-5~~-5-5-0~~-0-0~~-|-2-2-2~~-2-2-2-5~~-5-5-7~~-7-7~~-|
D-2-2-2~~-2-2-2-5~~-5-5-0~~-0-0~~-|-2-2-2~~-2-2-2-5~~-5-5-7~~-7-7~~-|

Guitar 2
E---------------------------------|---------------------------------|
B---------------------------------|---------------------------------|
G-9-9-9~~-9-9-9-12~-121214~-1414~-|-9-9-9~~-9-9-9-12~-121214~-1414~-|
D-x-x-x---x-x-x-x---x-x-x---x-x---|-x-x-x---x-x-x-x---x-x-x---x-x---|
A-7-7-7~~-7-7-7-10~-101012~-1212~-|-7-7-7~~-7-7-7-10~-101012~-1212~-|
D---------------------------------|---------------------------------|

Guitar 1 “Soul To Sell! Down Here You Live Forever...”
E---------------------------------|---------------------------------|
B---------------------------------|---------------------------------|
G---------------------------------|---------------------------------|
D-2-2-2~~-2-2-2-5~~-5-5-0~~-0-0~~-|-2-2-2~~-2-2-2-5~~-5-5-7~~-7-7~~-|
A-2-2-2~~-2-2-2-5~~-5-5-0~~-0-0~~-|-2-2-2~~-2-2-2-5~~-5-5-7~~-7-7~~-|
D-2-2-2~~-2-2-2-5~~-5-5-0~~-0-0~~-|-2-2-2~~-2-2-2-5~~-5-5-7~~-7-7~~-|

Guitar 2
E---------------------------------|---------------------------------|
B---------------------------------|---------------------------------|
G-9-9-9~~-9-9-9-12~-121214~-1414~-|-9-9-9~~-9-9-9-12~-121214~-1414~-|
D-x-x-x---x-x-x-x---x-x-x---x-x---|-x-x-x---x-x-x-x---x-x-x---x-x---|
A-7-7-7~~-7-7-7-10~-101012~-1212~-|-7-7-7~~-7-7-7-10~-101012~-1212~-|
D---------------------------------|---------------------------------|

Break Off 2

Guitar 1 “Welcome...”
E---------------------------------|---------------------------------|
B---------------------------------|---------------------------------|
G---------------------------------|---------------------------------|
D-2~--2~~~------------------------|-2~--2~~~------------------------|
A-2~--2~~~------------------------|-2~--2~~~------------------------|
D-2~--2~~~------------------------|-2~--2~~~------------------------|

Guitar 2
E---------------------------------|---------------------------------|
B---------------------------------|---------------------------------|
G---------------------------------|---------------------------------|
D-2~--2~~~-2-9-7-5~~~~~-2-5-7-7~~-|-2~--2~~~-2-9-7-5~~~~~-2-5-7-7~~-|
A-2~--2~~~-2-9-7-5~~~~~-2-5-7-7~~-|-2~--2~~~-2-9-7-5~~~~~-2-5-7-7~~-|
D-2~--2~~~-2-9-7-5~~~~~-2-5-7-7~~-|-2~--2~~~-2-9-7-5~~~~~-2-5-7-7~~-|

Verse 3

Guitar 1 “You Need To Wake Up And Face It, So You Can Taste My Reality...”
E---------------------------------|---------------------------------|
B---------------------------------|---------------------------------|
G---------------------------------|---------------------------------|
D-2-2-2~~~------------------------|-2-2-2~~~------------------------|
A-2-2-2~~~------------------------|-2-2-2~~~------------------------|
D-2-2-2~~~------------------------|-2-2-2~~~------------------------|

Guitar 2
E---------------------------------|---------------------------------|
B---------------------------------|---------------------------------|
G---------------------------------|---------------------------------|
D-2-2-2~~~------------------------|-2-2-2~~~------------------------|
A-2-2-2~~~------------------------|-2-2-2~~~------------------------|
D-2-2-2~~~-2-9-7-5~~~~~-2---------|-2-2-2~~~-2-9-7-5~~~~~-2---------|
Pm         . . . .      .                    . . . .      .

Guitar 1 “Then It Made You Lose Your Faith, And That’s What F---ed With Your Sanity...”
E---------------------------------|---------------------------------|
B---------------------------------|---------------------------------|
G---------------------------------|---------------------------------|
D-2-2-2~~~------------------------|-2-2-2~~~2~~~~~~~~~~~~~~-----x-x-|
A-2-2-2~~~------------------------|-2-2-2~~~2~~~~~~~~~~~~~~-----x-x-|
D-2-2-2~~~------------------------|-2-2-2~~~2~~~~~~~~~~~~~~-----x-x-|

Guitar 2
E---------------------------------|---------------------------------|
B---------------------------------|---------------------------------|
G---------------------------------|---------------------------------|
D-2-2-2~~~------------------------|-2-2-2~~~2~~~~~~~~~~~~~~-----x-x-|
A-2-2-2~~~------------------------|-2-2-2~~~2~~~~~~~~~~~~~~-----x-x-|
D-2-2-2~~~-2-9-7-5~~~~~-2-5-7-7~~-|-2-2-2~~~2~~~~~~~~~~~~~~-----x-x-|
Pm         . . . .      . . . .

Guitar 1 “Hollywood Is Your Friend, And The Undead Are Your Family...”
E---------------------------------|---------------------------------|
B---------------------------------|---------------------------------|
G---------------------------------|---------------------------------|
D-2-2-2~~~------------------------|-2-2-2~~~------------------------|
A-2-2-2~~~------------------------|-2-2-2~~~------------------------|
D-2-2-2~~~-2-9-7-5~~~~~-2---------|-2-2-2~~~-2-9-7-5~~~~~-2---------|

Guitar 2
E---------------------------------|---------------------------------|
B---------------------------------|---------------------------------|
G---------------------------------|---------------------------------|
D-2-2-2~~~------------------------|-2-2-2~~~------------------------|
A-2-2-2~~~------------------------|-2-2-2~~~------------------------|
D-2-2-2~~~-2-9-7-5~~~~~-2---------|-2-2-2~~~-2-9-7-5~~~~~-2---------|
Pm         . . . .      .                    . . . .      .

Guitar 1 “And I’ll Never Let You Go, Cuz I Know You’ll Come Back To Me...”
E---------------------------------|---------------------------------|
B---------------------------------|---------------------------------|
G---------------------------------|---------------------------------|
D-2-2-2~~~------------------------|---------------------------------|
A-2-2-2~~~------------------------|---------------------------------|
D-2-2-2~~~-2-9-7-5~~~~~-2---------|-2---2-2-2-----------------------|

Guitar 2
E---------------------------------|---------------------------------|
B---------------------------------|---------------------------------|
G---------------------------------|---------------------------------|
D-2-2-2~~~------------------------|---------------------------------|
A-2-2-2~~~------------------------|---------------------------------|
D-2-2-2~~~-2-9-7-5~~~~~-2---------|-2---2-2-2-----------------------|
Pm         . . . .      .

Chorus x2

Guitar 1 “Been to Hell! I Can Show You The Devil...”
E---------------------------------|---------------------------------|
B---------------------------------|---------------------------------|
G---------------------------------|---------------------------------|
D-2-2-2~~-2-2-2-5~~-5-5-0~~-0-0~~-|-2-2-2~~-2-2-2-5~~-5-5-7~~-7-7~~-|
A-2-2-2~~-2-2-2-5~~-5-5-0~~-0-0~~-|-2-2-2~~-2-2-2-5~~-5-5-7~~-7-7~~-|
D-2-2-2~~-2-2-2-5~~-5-5-0~~-0-0~~-|-2-2-2~~-2-2-2-5~~-5-5-7~~-7-7~~-|

Guitar 2
E---------------------------------|---------------------------------|
B---------------------------------|---------------------------------|
G-9-9-9~~-9-9-9-12~-121214~-1414~-|-9-9-9~~-9-9-9-12~-121214~-1414~-|
D-x-x-x---x-x-x-x---x-x-x---x-x---|-x-x-x---x-x-x-x---x-x-x---x-x---|
A-7-7-7~~-7-7-7-10~-101012~-1212~-|-7-7-7~~-7-7-7-10~-101012~-1212~-|
D---------------------------------|---------------------------------|

Guitar 1 “Soul To Sell! Down Here You Live Forever...”
E---------------------------------|---------------------------------|
B---------------------------------|---------------------------------|
G---------------------------------|---------------------------------|
D-2-2-2~~-2-2-2-5~~-5-5-0~~-0-0~~-|-2-2-2~~-2-2-2-5~~-5-5-7~~-7-7~~-|
A-2-2-2~~-2-2-2-5~~-5-5-0~~-0-0~~-|-2-2-2~~-2-2-2-5~~-5-5-7~~-7-7~~-|
D-2-2-2~~-2-2-2-5~~-5-5-0~~-0-0~~-|-2-2-2~~-2-2-2-5~~-5-5-7~~-7-7~~-|

Guitar 2
E---------------------------------|---------------------------------|
B---------------------------------|---------------------------------|
G-9-9-9~~-9-9-9-12~-121214~-1414~-|-9-9-9~~-9-9-9-12~-121214~-1414~-|
D-x-x-x---x-x-x-x---x-x-x---x-x---|-x-x-x---x-x-x-x---x-x-x---x-x---|
A-7-7-7~~-7-7-7-10~-101012~-1212~-|-7-7-7~~-7-7-7-10~-101012~-1212~-|
D---------------------------------|---------------------------------|

Outro

Guitar 1 “Welcome...”
E---------------------------------|---------------------------------|
B---------------------------------|---------------------------------|
G---------------------------------|---------------------------------|
D-2~--2~~~------------------------|-2~--2~~~------------------------|
A-2~--2~~~------------------------|-2~--2~~~------------------------|
D-2~--2~~~------------------------|-2~--2~~~------------------------|

Guitar 2
E---------------------------------|---------------------------------|
B---------------------------------|---------------------------------|
G---------------------------------|---------------------------------|
D-2~--2~~~-2-9-7-5~~~~~-2-5-7-7~~-|-2~--2~~~-2-9-7-5~~~~~-2-5-7-7~~-|
A-2~--2~~~-2-9-7-5~~~~~-2-5-7-7~~-|-2~--2~~~-2-9-7-5~~~~~-2-5-7-7~~-|
D-2~--2~~~-2-9-7-5~~~~~-2-5-7-7~~-|-2~--2~~~-2-9-7-5~~~~~-2-5-7-7~~-|

Guitar 1 “Welcome! Welcome To A World Where Dreams Become Nightmares!”
E---------------------------------|---------------------------------|
B---------------------------------|---------------------------------|
G---------------------------------|---------------------------------|
D-2~--2~~~------------------------|-2~--2~~~------------------------|
A-2~--2~~~------------------------|-2~--2~~~------------------------|
D-2~--2~~~------------------------|-2~--2~~~------------------------|

Guitar 2
E---------------------------------|---------------------------------|
B---------------------------------|---------------------------------|
G---------------------------------|---------------------------------|
D-2~--2~~~-2-9-7-5~~~~~-2-5-7-7~~-|-2~--2~~~-2-9-7-5~~~~~-2-5-7-7~~-|
A-2~--2~~~-2-9-7-5~~~~~-2-5-7-7~~-|-2~--2~~~-2-9-7-5~~~~~-2-5-7-7~~-|
D-2~--2~~~-2-9-7-5~~~~~-2-5-7-7~~-|-2~--2~~~-2-9-7-5~~~~~-2-5-7-7~~-|

Guitar 1 & 2
E---------------------------------|---------------------------------|
B---------------------------------|---------------------------------|
G---------------------------------|---------------------------------|
D-2~--2~~~------------------------|---------------------------------|
A-2~--2~~~------------------------|---------------------------------|
D-2~--2~~~------------------------|---------------------------------|

Tab Legend
h  -  hammer-on
p  -  pull-off
/  -  slide up
\  -  slide down
ps/-  pickslide up
ps\-  pickslide down
~  -  let ring
pm.-  palm mute
b  -  bend
r  -  return from bend
*  -  harmonic
x  -  dead note
^ -  Whammy bar

That’s it! Check out my cover, and tell me how I did. Thanks, oh and one last thing... 
ROCK OUT!!!!
comments
print report bad tab
1 comment total.
0 reply
Jackal850 wrote on November 7 2013, 11:11 am

I haven't gotten a chance to test this yet but it looks right and the other 2 HU tabs you posted were spot on. Thanks for the good work brotha!

I want to post or [tab]
guest
You may want to rate the tab now too:
select rating
Please do not post tabs as comments. Select "correction" instead!