Oops, an error
Loading. Please wait.

Been To Hell Tab

version 6
version 6

Interactive

950 views 1 this week
no commentswrite comment
1 2 3 4 5
please rate
add to favorites
launch autoscroll
font size
0
reset
how to read this tab
guitar tuner
Autoscroll
slow
fast
+/-
esc
set tempo
stop
Help us to improve Ultimate-Guitar.com Take our survey!
×
Contributor
-------------------------------------------------------------------------------
                             Been To Hell - Hollywood Undead
-------------------------------------------------------------------------------
Tabbed by: Sam9tremblay
Email:Sam9tremblay@hotmail.com

Correct me please , if you see some mistakes .

Tuning: Drop D
 
Intro

  Guitar 1
e|---------------------------------------------------------------------------|
B|---------------------------------------------------------------------------|
G|--7-7-7-7-7-7-7-7----------------------------------------------------------|
D|--x-x-x-x-x-x-x-x----------------------------------------------------------|
A|--5-5-5-5-5-5-5-5----------------------------------------------------------|
E|---------------------------------------------------------------------------|

 Guitar 1
e|---------------------------------------------------------------------------|
B|---------------------------------------------------------------------------|
G|---------------------------------------------------------------------------|
D|---------------------------------------------------------------------------|
A|--2-2--2-9-7-5--5-5--2-5-7-------------------------------------------------|
E|--2-2--2-9-7-5--5-5--2-5-7-------------------------------------------------|

Verse

 Guitar 1
e|---------------------------------------------------------------------------|
B|---------------------------------------------------------------------------|
G|--------------------------------------x-x-x-x------------------------------|
D|--------------------------------------x-x-x-x------------------------------|
A|--2-2-2----2-2-2----2-2-2----2-2-2----x-x-x-x------------------------------|
E|--2-2-2----2-2-2----2-2-2----2-2-2----x-x-x-x------------------------------|
 
 Guitar 1
e|---------------------------------------------------------------------------|
B|---------------------------------------------------------------------------|
G|---------------------------------------------------------------------------| 
D|---------------------------------------------------------------------------|
A|--2-2-2--------------------2-2-2-------------------------------------------|
E|--2-2-2--9-7-5--5-5-2-2----2-2-2--9-7-5--5-5-2-5-7-------------------------|

e|---------------------------------------------------------------------------|
B|---------------------------------------------------------------------------|
G|---------------------------------------------------------------------------|
D|---------------------------------------------------------------------------|
A|--2-2-2--------------------2-2-2-------------------------------------------|
E|--2-2-2--9-7-5--5-5-2-2----2-2-2-------------------------------------------|

Chorus

 Guitar 1 (Strum)
e|---------------------------------------------------------------------------|
B|---------------------------------------------------------------------------|
G|---------------------------------------------------------------------------|
D|---------------------------------------------------------------------------|
A|--2-5-0--------------------------------------------------------------------|
E|--2-5-0--------------------------------------------------------------------|

e|---------------------------------------------------------------------------|
B|---------------------------------------------------------------------------|
G|---------------------------------------------------------------------------|
D|---------------------------------------------------------------------------|
A|--2-5-7--------------------------------------------------------------------|
E|--2-5-7--------------------------------------------------------------------|


Intro part 1 (1 time)
Intro part 2 (4 times)
Verse part 1 (1 time)
Verse part 2 (1 time)
Chorus (2 times)
Intro part 2 (2 times)
Verse part 2 (2 times)
Chorus (2 times)
Intro part 2 (2 times)
Verse part 2 (2 times)
Chorus (2 times)
Intro part 2 (4 times)
************************************

| /   slide up
| \   slide down
| h   hammer-on
| p   pull-off
| ~   vibrato
| +   harmonic
| x   Mute note
| b   Bend
| pb  Pre-bend
| br  Bend release
| pbr Pre-bend release
| brb Bend release bend
| *     Palm Muted
************************************
Suggest correction What's this?
You can suggest a correction to this tab. Community and Mods will review your correction and vote to approve or reject it.
comments
We did not receive enough feedback on this tab! Please rate:
print report bad tab
1 2 3 4 5
I want to post or [tab]
guest
You may want to rate the tab now too:
select rating
Please do not post tabs as comments. Select "correction" instead!