Oops, an error
Loading. Please wait.

Believe Bass Tab

version 1
version 1

Whole song

Interactive

1,036 views 1 this week
no commentswrite comment
1 2 3 4 5
please rate
add to favorites
launch autoscroll
font size
0
reset
guitar tuner
Autoscroll
slow
fast
+/-
esc
set tempo
stop
Help us to improve Ultimate-Guitar.com Take our survey!
×
Difficulty
Tuning
novice
C G C F A D
Bass
Drop C
Legend
L - tied note
x - dead note
h - hammer on/pull off
b - bend
s - slide
~ - vibrato
g - ghost note
> - accentuated note
t - trill
M - palm mute
. - staccato
P - popping (bass)
S - slapping (bass)
+ - tapping
W - wide vibrato
< - fade in
w - whammy bar
= - tremolo picking
v - brush up
^ - brush down
V - pick stroke up
n - pick stroke down


F |----------------------------|----------------------------|
C |----------------------------|----------------------------|
G |----------------------------|-----3-----3-----3-----3----|
C |-----2-----2-----2-----2----|----------------------------|


----------------------------|----------------------------|
-----5-----5-----5-----5----|-----4-----4-----4-----4----|
----------------------------|----------------------------|
----------------------------|----------------------------|


----------------------------|----------------------------|
----------------------------|----------------------------|
----------------------------|-----3-----3-----3-----3----|
-----2-----2-----2-----2----|----------------------------|


----------------------------|----------------------------|
-----5-----5-----5-----5----|-----4-----4-----4-----4----|
----------------------------|----------------------------|
----------------------------|----------------------------|


----------------------------------------------------|
----------------------------------------------------|
----------------------------------------------------|
--2-----2--2--2-----2--2-----2--2-----2-----2--2----|


----------------------------------------------------|
----------------------------------------------------|
--3-----3--3--3-----3--3-----3--3-----3-----3--3----|
----------------------------------------------------|


----------------------------------------------------|
----------------------------------------------------|
----------------------------------------------------|
--5-----5--5--5-----5--5-----5--5-----5-----5--5----|


----------------------------------------------------|
----------------------------------------------------|
----------------------------------------------------|
--4-----4--4--4-----4--4-----4--4-----4-----0-------|


----------------------------------------------------|
----------------------------------------------------|
----------------------------------------------------|
--2-----2--2--2-----2--2-----2--2-----2-----2--2----|


----------------------------------------------------|
----------------------------------------------------|
--3-----3--3--3-----3--3-----3--3-----3-----3--3----|
----------------------------------------------------|


----------------------------------------------------|
----------------------------------------------------|
----------------------------------------------------|
--5-----5--5--5-----5--5-----5--5-----5-----5--5----|


----------------------------------------------------|
----------------------------------------------------|
----------------------------------------------------|
--4-----4--4--4-----4--4-----4--4-----4-----0-------|


----------------------------|----------------------------|
----------------------------|----------------------------|
----------------------------|-----3-----3-----3-----3----|
-----2-----2-----2-----2----|----------------------------|


----------------------------|----------------------------|
-----5-----5-----5-----5----|-----4-----4-----4-----4----|
----------------------------|----------------------------|
----------------------------|----------------------------|


----------------------------|----------------------------|
----------------------------|----------------------------|
----------------------------|-----3-----3-----3-----3----|
-----2-----2-----2-----2----|----------------------------|


----------------------------|----------------------------|
-----5-----5-----5-----5----|-----4-----4-----4-----4----|
----------------------------|----------------------------|
----------------------------|----------------------------|


----------------------------|----------------------------|
----------------------------|----------------------------|
----------------------------|-----3-----3-----3-----3----|
-----2-----2-----2-----2----|----------------------------|


----------------------------|----------------------------|
-----5-----5-----5-----5----|-----4-----4-----4-----4----|
----------------------------|----------------------------|
----------------------------|----------------------------|


----------------------------|----------------------------|
----------------------------|----------------------------|
----------------------------|-----3-----3-----3-----3----|
-----2-----2-----2-----2----|----------------------------|


----------------------------|----------------------------|
-----5-----5-----5-----5----|-----4-----4----------------|
----------------------------|----------------------------|
----------------------------|----------------------------|


----------------------------------------------------|
----------------------------------------------------|
----------------------------------------------------|
--2-----2--2--2-----2--2-----2--2-----2-----2--2----|


----------------------------------------------------|
----------------------------------------------------|
--3-----3--3--3-----3--3-----3--3-----3-----3--3----|
----------------------------------------------------|


----------------------------------------------------|
----------------------------------------------------|
----------------------------------------------------|
--5-----5--5--5-----5--5-----5--5-----5-----5--5----|


----------------------------------------------------|
----------------------------------------------------|
----------------------------------------------------|
--4-----4--4--4-----4--4-----4--4-----4-----0-------|


----------------------------------------------------|
----------------------------------------------------|
----------------------------------------------------|
--2-----2--2--2-----2--2-----2--2-----2-----2--2----|


----------------------------------------------------|
----------------------------------------------------|
--3-----3--3--3-----3--3-----3--3-----3-----3--3----|
----------------------------------------------------|


----------------------------------------------------|
----------------------------------------------------|
----------------------------------------------------|
--5-----5--5--5-----5--5-----5--5-----5-----5--5----|


----------------------------------------------------|-------|-------|-------|
----------------------------------------------------|-------|-------|-------|
----------------------------------------------------|-------|-------|-------|
--4-----4--4--4-----4--4-----4--4-----4-----0-------|--2----|-------|-------|


-------|-------|-------|-------|-------|----------------------------|
-------|-------|-------|-------|-------|----------------------------|
-------|-------|-------|-------|-------|----------------------------|
-------|-------|-------|-------|-------|-----2-----2-----2-----2----|


----------------------------|----------------------------|
----------------------------|-----5-----5-----5-----5----|
-----3-----3-----3-----3----|----------------------------|
----------------------------|----------------------------|


----------------------------|----------------------------|
-----4-----4-----4-----4----|----------------------------|
----------------------------|----------------------------|
----------------------------|-----2-----2-----2-----2----|


----------------------------|----------------------------|
----------------------------|-----5-----5-----5-----5----|
-----3-----3-----3-----3----|----------------------------|
----------------------------|----------------------------|


----------------------------|----------------------------|
-----4-----4-----4-----4----|----------------------------|
----------------------------|----------------------------|
----------------------------|--2--2--2--2--2--2--2--2----|


----------------------------|----------------------------|
----------------------------|----------------------------|
--3--3--3--3--3--3--3--3----|----------------------------|
----------------------------|--5--5--5--5--5--5--5--5----|


----------------------------|----------------------------|
----------------------------|----------------------------|
----------------------------|----------------------------|
--4--4--4--4--4--4--4--4----|--2--2--2--2--2--2--2--2----|


----------------------------|----------------------------|
----------------------------|----------------------------|
--3--3--3--3--3--3--3--3----|----------------------------|
----------------------------|--5--5--5--5--5--5--5--5----|


----------------------------|-------|-------|-------|-------|
----------------------------|-------|-------|-------|-------|
----------------------------|-------|-------|-------|-------|
--4--4--4--4--4--4--4--4----|--2----|-------|-------|-------|


----------------------------|----------------------------|
----------------------------|----------------------------|
----------------------------|-----3-----3-----3-----3----|
-----2-----2-----2-----2----|----------------------------|


----------------------------|----------------------------|
-----5-----5-----5-----5----|-----4-----4-----4-----4----|
----------------------------|----------------------------|
----------------------------|----------------------------|


----------------------------|----------------------------|
----------------------------|----------------------------|
----------------------------|-----3-----3-----3-----3----|
-----2-----2-----2-----2----|----------------------------|


----------------------------|----------------------------|
-----5-----5-----5-----5----|-----4-----4-----4-----4----|
----------------------------|----------------------------|
----------------------------|----------------------------|


----------------------------|----------------------------|
----------------------------|----------------------------|
----------------------------|-----3-----3-----3-----3----|
-----2-----2-----2-----2----|----------------------------|


----------------------------|-------|
-----5-----5-----5-----5----|-------|
----------------------------|-------|
----------------------------|-------|


----------------------------------------------------|
----------------------------------------------------|
----------------------------------------------------|
--2-----2--2--2-----2--2-----2--2-----2-----2--2----|


----------------------------------------------------|
----------------------------------------------------|
--3-----3--3--3-----3--3-----3--3-----3-----3--3----|
----------------------------------------------------|


----------------------------------------------------|
----------------------------------------------------|
----------------------------------------------------|
--5-----5--5--5-----5--5-----5--5-----5-----5--5----|


----------------------------------------------------|
----------------------------------------------------|
----------------------------------------------------|
--4-----4--4--4-----4--4-----4--4-----4-----0-------|


----------------------------------------------------|
----------------------------------------------------|
----------------------------------------------------|
--2-----2--2--2-----2--2-----2--2-----2-----2--2----|


----------------------------------------------------|
----------------------------------------------------|
--3-----3--3--3-----3--3-----3--3-----3-----3--3----|
----------------------------------------------------|


----------------------------------------------------|
----------------------------------------------------|
----------------------------------------------------|
--5-----5--5--5-----5--5-----5--5-----5-----5--5----|


----------------------------------------------------|-------|-------|----||
----------------------------------------------------|-------|-------|----||
----------------------------------------------------|-------|-------|----||
--4-----4--4--4-----4--4-----4--4-----4-----0-------|--2L---|--2----|----||
Suggest correction
What's this?
You can suggest a correction to this tab. Community and Mods will review your correction and vote to approve or reject it.
comments
We did not receive enough feedback on this tab! Please rate:
print report bad tab
1 2 3 4 5
guest
You may want to rate the tab now too:
select rating
Please do not post tabs as comments. Select "correction" instead!