Oops, an error
Loading. Please wait.

Believe Bass Tab

version 2
version 2

Whole song

Interactive

272 views 1 this week
no commentswrite comment
1 2 3 4 5
please rate
add to favorites
launch autoscroll
font size
0
reset
guitar tuner
Autoscroll
slow
fast
+/-
esc
set tempo
stop
Help us to improve Ultimate-Guitar.com Take our survey!
×
Author
0:11
G|-----------------------------------------------------------------|
D|-----------------------------------------------------------------|
A|-----------------3-----------------------------------------------|
D|-2-------------------------------5---------------4---------------|
   1 + 2 + 3 + 4 + 1 + 2 + 3 + 4 + 1 + 2 + 3 + 4 + 1 + 2 + 3 + 4 +

G|-------------------------------5---------------------------------|
D|-----------------------------------------------------------------|
A|-----------------3-------------------------------------------2-5-|
D|-2-----------2-------------------5-------------5-4---------------|
   1 + 2 + 3 + 4 + 1 + 2 + 3 + 4 + 1 + 2 + 3 + 4 + 1 + 2 + 3 + 4 +

G|-------------------------------5---------------------------------|
D|-----------------------------------------------------------------|
A|-7-----------7---3-------------------------------------------2-5-|
D|---------------------------------5-------------5-4---------------|
   1 + 2 + 3 + 4 + 1 + 2 + 3 + 4 + 1 + 2 + 3 + 4 + 1 + 2 + 3 + 4 +

0:44
G|-----------------------------------------------------------------|
D|-----------------------------------------------------------------|
A|-----------------3-----------------------------------------------|
D|-2-------------------------------5---------------4---------------|
   1 + 2 + 3 + 4 + 1 + 2 + 3 + 4 + 1 + 2 + 3 + 4 + 1 + 2 + 3 + 4 +

G|-----------------------------------------------------------------|
D|-----------------------------------------------------------------|
A|-----------------3-------------------------------------------2-5-|
D|-2-------------------------------5---------------4---------------|
   1 + 2 + 3 + 4 + 1 + 2 + 3 + 4 + 1 + 2 + 3 + 4 + 1 + 2 + 3 + 4 +

1:07
G|-----------------------------------------------------------------|
D|-----------------------------------------------------------------|
A|-7---------------3-------------------------------------------2-5-|
D|---------------------------------5---------------4---------------|
   1 + 2 + 3 + 4 + 1 + 2 + 3 + 4 + 1 + 2 + 3 + 4 + 1 + 2 + 3 + 4 +

G|-----------------------------------------------------------------|
D|-----------------------------------------------------------------|
A|-----------------3-------------3---------------------------------|
D|-2-------------2-----------------5-------------5-4---------------|
   1 + 2 + 3 + 4 + 1 + 2 + 3 + 4 + 1 + 2 + 3 + 4 + 1 + 2 + 3 + 4 +

1:30
G|-------------------------------5---------------------------------|
D|-----------------------------------------------------------------|
A|-----------------3-------------------------------------------2-5-|
D|-2-----------2-------------------5-------------5-4---------------|
   1 + 2 + 3 + 4 + 1 + 2 + 3 + 4 + 1 + 2 + 3 + 4 + 1 + 2 + 3 + 4 +

G|-------------------------------5---------------------------------|
D|-----------------------------------------------------------------|
A|-7-----------7---3-------------------------------------------2-5-|
D|---------------------------------5-------------5-4---------------|
   1 + 2 + 3 + 4 + 1 + 2 + 3 + 4 + 1 + 2 + 3 + 4 + 1 + 2 + 3 + 4 +

1:52
Rest

2:15
G|-------------------------------5---------------------------------|
D|-----------------------------------------------------------------|
A|-----------------3-------------------------------------------2-5-|
D|-2-----------2-------------------5-------------5-4---------------|
   1 + 2 + 3 + 4 + 1 + 2 + 3 + 4 + 1 + 2 + 3 + 4 + 1 + 2 + 3 + 4 +

G|-------------------------------5---------------------------------|
D|-----------------------------------------------------------------|
A|-7-----------7---3-------------------------------------------2-5-|
D|---------------------------------5-------------5-4---------------|
   1 + 2 + 3 + 4 + 1 + 2 + 3 + 4 + 1 + 2 + 3 + 4 + 1 + 2 + 3 + 4 +

2:38
G|-------------------------------5---------------------------------|
D|-----------------------------------------------------------------|
A|-7-----------7---3-----3-3-3---------------------------------2-5-|
D|-------2-2-----------------------5-------------5-4---------------|
   1 + 2 + 3 + 4 + 1 + 2 + 3 + 4 + 1 + 2 + 3 + 4 + 1 + 2 + 3 + 4 +

G|-------------------------------5---------------------------------|
D|-----------------------------------------------------------------|
A|-7-----------7---3-----------------------------------------------|
D|-------2-2-----------------------5-------------5-4---------------|
   1 + 2 + 3 + 4 + 1 + 2 + 3 + 4 + 1 + 2 + 3 + 4 + 1 + 2 + 3 + 4 +

3:00
G|-------------------------------5---------------------------------|
D|-----------------------------------------------------------------|
A|-----------------3-------------------------------------------2-5-|
D|-2-----------2-------------------5-------------5-4---------------|
   1 + 2 + 3 + 4 + 1 + 2 + 3 + 4 + 1 + 2 + 3 + 4 + 1 + 2 + 3 + 4 +

G|-------------------------------5---------------------------------|
D|-----------------------------------------------------------------|
A|-7-----------7---3-------------------------------------------2-5-|
D|---------------------------------5-------------5-4---------------|
   1 + 2 + 3 + 4 + 1 + 2 + 3 + 4 + 1 + 2 + 3 + 4 + 1 + 2 + 3 + 4 +

3:23
G|-------------------------------5---------------------------------|
D|-----------------------------------------------------------------|
A|-7-----------7---3-----------------------------------------------|
D|---------------------------------5-------------------------------|
   1 + 2 + 3 + 4 + 1 + 2 + 3 + 4 + 1 + 2 + 3 + 4 + 1 + 2 + 3 + 4 +

G|-----------------------------------------------------------------|
D|-----------------------------------------------------------------|
A|-----------------3-------------3---------------------------------|
D|-2-------------2-----------------5-------------5-4---------------|
   1 + 2 + 3 + 4 + 1 + 2 + 3 + 4 + 1 + 2 + 3 + 4 + 1 + 2 + 3 + 4 +

3:45
G|-------------------------------5---------------------------------|
D|-----------------------------------------------------------------|
A|-----------------3-------------------------------------------2-5-|
D|-2-----------2-------------------5---------------4---------------|
   1 + 2 + 3 + 4 + 1 + 2 + 3 + 4 + 1 + 2 + 3 + 4 + 1 + 2 + 3 + 4 +

G|-------------------------------5---------------------------------|
D|-----------------------------------------------------------------|
A|-7-----------7---3-----------------------------------------------|
D|---------------------------------5---------------4---------------|
   1 + 2 + 3 + 4 + 1 + 2 + 3 + 4 + 1 + 2 + 3 + 4 + 1 + 2 + 3 + 4 +
Tabbed by Dave Vucko
Suggest correction
Give kudos to tab author, rate the tab!
1 2 3 4 5
comments
print report bad tab
guest
You may want to rate the tab now too:
select rating
Please do not post tabs as comments. Select "correction" instead!