Oops, an error
Loading. Please wait.

Bitches Tab

13,477 views 6 this week
no commentswrite comment
1 2 3 4 5
please rate
add to favorites
launch autoscroll
font size
0
reset
how to read this tab
guitar tuner
Autoscroll
slow
fast
+/-
esc
set tempo
stop
Help us to improve Ultimate-Guitar.com Take our survey!
×
well this is bitches by Hollywood Undead
for #2 listen to it carefully cause the strumming is weird
just do what goes with the beat
by the way this is a rap song that i made up a guitar to so for
the beginning just go with the beat just try your best
(SONG ORDER AT THE BOTTOM)


#1
----------------------------|
----------------------------|
----11-----9----7----5------|
----11-----9----7----5------|
----------------------------|
-9-9---7-7---55---33--------|(x4)
#2
-----------------------------------|
-----------------------------------|
-6-6-[6-6-6]-----8-8-[8-8-8]----6~-|
-6-6-[6-6-6]-----8-8-[8-8-8]----6~-|
-4-4-[4-4-4]-(x4)6-6-[6-6-6](x1)4~-|
-----------------------------------|(x1)
#3
----------------------------|
----------------------------|
-10-10-8-8-6-6-5-5-3--------|
-10-10-8-8-6-6-5-5-3--------|
-8--8--6-6-4-4-3-3-1--------|
----------------------------|(x1)
#4
----------------------------|
----------------------------|
----11-----9----7----5------|
----11-----9----7----5------|
----------------------------|
-9-9---7-7---55---33--------|(x4)
#5
----------------------------|
----------------------------|
----10----8-----6-----4-----|
----10----8-----6-----4-----|
----------------------------|
-8-8---6-6---4-4---2-2------|(x4)

#6
----------------------------|
----------------------------|
----9-----7-----5-----3-----|
----9-----7-----5-----3-----|
----------------------------|
-7-7---5-5---3-3---1-1------|(x4)
#7
----------------------------|
----------------------------|
----8-----6-----4---3-3-----|
----8-----6-----4---3-3-----|
----------------------------|
-6-6---4-4---2-2---1--------|(x4)

#8
----------------------------------|
----------------------------------|
------12-------10--------8------6-|
--------12-------10-----8------6--|
----------------------------------|
-10-10------8-8------6-6----4-4---|(x3)
#9
----------|
----------|
--11------|
--11------|
----------|
-9--------|(x4)maybe 5x you choose
#10
------------|
------------|
-11---------|
-11---------|
------------|
-9----------|(x6)
#11
---------------------------                           ----|
---------------------------                           ----|
-10-10-8-8-6-6-5-5---------                           -3--|
-10-10-8-8-6-6-5-5---------                           -3--|
-8--8--6-6-4-4-3-3---------                           -1--|
---------------------------(x3)this time you dont use ----|
#12
----
----
-3~-
-3~-
-1~-
----

SONG ORDER BY NUMBER #
#1
#2
#3
#2
#3
#4
#5
#2
#3
#2
#3
#6
#7
#2
#3
#2
#3
#8
#9
#10
#2
#3
#2
#3
#11
#12
Suggest correction
What's this?
You can suggest a correction to this tab. Community and Mods will review your correction and vote to approve or reject it.
comments
We did not receive enough feedback on this tab! Please rate:
print report bad tab
1 2 3 4 5
guest
You may want to rate the tab now too:
select rating
Please do not post tabs as comments. Select "correction" instead!