Oops, an error
Loading. Please wait.

Bullet Bass Tab

version 3
version 3

Whole song

Interactive

596 views 1 this week
1 commentread comment
1 2 3 4 5
3 more votes to show rating
add to favorites
launch autoscroll
font size
0
reset
guitar tuner
Autoscroll
slow
fast
+/-
esc
set tempo
stop
Help us to improve Ultimate-Guitar.com Take our survey!
×
Author
Difficulty
novice
Did this by ear. Hope you guys like it. I will accept criticism as long as it's about 
the tabs and not the song itself.

Bass comes in around 0:13
Chorus/Verse:
G|-----------------------------------|
D|-------------------------2---------|
A|-------0-2--2-2-0-4--4-4---0--0-0-2|
E|0--0-0-----------------------------|

Note: I put the notes along with the correct syllables you hit them on
Pre-Chorus:
G|-------------------------------------------|
D|-------------------------------------------|
A|-------------------------------------------|
E|-----5-----3----------1--------0-----1-1-1-|
"So if I survive, then I'll see you tomorrow."

G|---------------------------------------|
D|---------------------------------------|
A|---------------------------0/12--------|    <- Quickly slide
E|--------------------4---4--------------|
"Yeah I'll see you tomorrow."

Bass doesn't play the outro. Don't let anyone tell you it does.
Suggest correction
Give kudos to tab author, rate the tab!
1 2 3 4 5
comments
print report bad tab
1 comment total.
0 reply
guillotine72 31 Feb 21, 2013 09:27 PM

Made a mistake. Tuning is in Drop D. It's the second fret on the D string for a low E and the final "2" on the A string is an open D.

guest
You may want to rate the tab now too:
select rating
Wanna post a correction for this tab? Suggest correction