Oops, an error
Loading. Please wait.

Bullet Bass Tab

version 4
version 4

Whole song

Interactive

2,709 views 9 this week
no commentswrite comment
1 2 3 4 5
excellent!
x 6
add to favorites
launch autoscroll
font size
0
reset
guitar tuner
Autoscroll
slow
fast
+/-
esc
set tempo
stop
Help us to improve Ultimate-Guitar.com Take our survey!
×
Author
Tuning
D A D G B E
0:12
G|-------------------------------------------------------------------|
D|o-----------------------------------------------------------------o|
A|o-----------------2-------2--2----4-------4--4--7-0-------0--0----o|x5
D|--2-------2--2--6---------------6-------------------------------4--|
    1 + 2 + Triplet 1 + 2 + Triplet 1 + 2 + Triplet 1 + 2 + Triplet

1:04
G|-------------------------------------------------|
D|-------------------------------------------------|
A|-7---6---4---2---0---0---0-0-0-0-2---2-/-14------|
D|-------------------------------------------------|
   1 + 2 + 3 + 4 + 1 + 2 + 3 + 4 + 1 + 2 + 3 + 4 + 

1:11
G|-------------------------------------------------------------------|
D|o-----------------------------------------------------------------o|
A|o-----------------2-2-2-2-2-2-----4-4-4-4-4-4-6-7-0-0-0-0-0-0-----o|
D|--2-2-2-2-2-2-2-6-------------7-6-----------------------------6-4--|
    1 + 2 + 3 + 4 + 1 + 2 + 3 + 4 + 1 + 2 + 3 + 4 + 1 + 2 + 3 + 4 +

1:32
G|-------------------------------------------------------------------|
D|o-----------------------------------------------------------------o|
A|o-----------------2-------2--2----4-------4--4--7-0-------0--0----o|x4
D|--2-------2--2--6---------------6-------------------------------4--|
    1 + 2 + Triplet 1 + 2 + Triplet 1 + 2 + Triplet 1 + 2 + Triplet

2:14
G|-------------------------------------------------|
D|-----------------------------7-----------9-------|
A|-7---6---4---2---0---0---0-7---7-------9---------|
D|---------------------------------9---9-----------|
   1 + 2 + 3 + 4 + 1 + 2 + 3 + 4 + 1 + 2 + 3 + 4 + 

2:22
G|-----------------------------------------------------------------|
D|-----------------------------------------------------------------|
A|-----------------2-2-2-2-2-2-----4-4-4-4-4-4-6-7-0-0-0-0-0-0-----|
D|-2-2-2-2-2-2-2-6-------------7-6-----------------------------6-4-|
   1 + 2 + 3 + 4 + 1 + 2 + 3 + 4 + 1 + 2 + 3 + 4 + 1 + 2 + 3 + 4 +

G|---------------------------------------------------------------------------------|
D|-----------------------------------------------4-6-6-679-2-2-246-----------------|
A|-----------------2-2-2-2-2-2-----4-4-4-4-4-6-7-------------------7-------------\-|
D|-2-2-2-2-2-2-2-6-------------7-6-------------------------------------------------|
   1 + 2 + 3 + 4 + 1 + 2 + 3 + 4 + 1 + 2 + 3 + 4 + 1 + 2 + 3 + 4 + 1 + 2 + 3 + 4 +
Tabbed by Dave Vucko
Suggest correction
comments
print report bad tab
guest
You may want to rate the tab now too:
select rating
Wanna post a correction for this tab? Suggest correction