Oops, an error
Loading. Please wait.

California Tab

version 2
version 2

Whole song

Interactive

1,684 views 1 this week
no commentswrite comment
1 2 3 4 5
2 more votes to show rating
add to favorites
launch autoscroll
font size
0
reset
how to read this tab
guitar tuner
Autoscroll
slow
fast
+/-
esc
set tempo
stop
Help us to improve Ultimate-Guitar.com Take our survey!
×
Author
Tuning
C# G# C# F# A# D#
Song: California
Artist: Hollywood Undead
Album: Swan Songs
Tuning: Drop Db (Db Ab Db Gb Bb Eb)



Intro 
2x

Cello
|-------------------------------------------------| 
|-------------------------------------------------|
|-------------------------------------------------|
|-------------------------------------------------| 
|-5-----------------------0-----------5-----------|
|-------------5-----------------------------------|

Strings
Repeat during Chorus
|-------------17----------17----------------------| 
|-15----------------------------------15----------|
|-------10----------15----------12----------10----|
|----12----12----12----12----12----12----12----12-| 
|-------------------------------------------------|
|-------------------------------------------------|

Guitar 2nd time
|---------------------------------------------------------| 
|---------------------------------------------------------|
|---------------------------------------------------------|
|---------------------------------------------------------| 
|---------------------------------------------------------|
|---------------------------------------------------00--0-| 



Chorus
Guitar
2x
|--------------------------------------------------| 
|--------------------------------------------------|
|-------------------------2---2--------------------|
|-0---0-------5---5-------2---2--22--20---0--------| 
|-0---0--00--05---5--55--50---0--00--00---0--00--0-|
|-0---0--00--05---5--55--5------------0---0--00--0-|
PM|      --  -       --  -       --  -       --  -



Verse
Strings
|-------------------------------------------------| 
|-------------------------------------------------|
|-------10----------15----------12----------10----|
|----12----12----12----12----12----12----12----12-| 
|-------------------------------------------------|
|-------------------------------------------------|

Verse Second Part
Synthetic Strings
|-17-13----------------------15-12----------------| 
|-------15----------------------------------------|
|----------------------------------14-------------|
|-------------------------------------------------| 
|-------------------------------------------------|
|-------------------------------------------------|

Pre-Chorus
|-17-13----------------------15-12----------------| 
|-------15----------------------------------------|
|----------------------------------14-------------|
|-------12----------------------------------------| 
|-------------------------------------------------|
|-------------------------------------------------|



Repeat Chorus



Verse 2

Same as Verse 1 but with this in the second part
|-------18-17-------------------15-12-------------| 
|----15-------------------------------------------|
|----------------------------14-------------------|
|-------------------------------------------------| 
|-------------------------------------------------|
|-------------------------------------------------|

Extra electronic bit at 1:42
“I’m a pirate on the streets of…”
|-------18-17-------17-15-------------------------| 
|----15----------------------------------15-17-15-|
|----------------12----------12-------------------|
|-------------------------------------------------| 
|-------------------------------------------------|
|-------------------------------------------------|



Repeat Chorus



Bridge
Horns
|-------------------------------------------------| 
|-------------------------------------------------|
|-------------------------------------------------|
|-------------------------------------------------| 
|--------------------------0---0------------------|
|-0---0--------5---5-------------------0---0------|

Guitar at 2:33
|----------------------------| 
|----------------------------|
|-6~-------------------------|
|-7~-------------------------| 
|-4~-------------------------|
|----------------------------|



Repeat Chorus 3x

Synthetic Strings at 2:56
|-------22----------22----------22----------22----| 
|-------------------------------------------------|
|-------------------------------------------------|
|-------------------------------------------------| 
|-------------------------------------------------|
|-------------------------------------------------|
Suggest correction
Give kudos to tab author, rate the tab!
1 2 3 4 5
comments
print report bad tab
guest
You may want to rate the tab now too:
select rating
Wanna post a correction for this tab? Suggest correction