Oops, an error
Loading. Please wait.

Circles Tab

version 2
version 2

Interactive

34,802 views 3 this week
5 commentsread comments
1 2 3 4 5
x 17
add to favorites
launch autoscroll
font size
0
reset
how to read this tab
guitar tuner
Autoscroll
slow
fast
+/-
esc
set tempo
stop
Help us to improve Ultimate-Guitar.com Take our survey!
×
Author
Difficulty
novice
This is my first tab and I think it's pretty accurate

Band: Hollywood Undead
Song: Circles
Tabbed by: Bananaman395@hotmail.com
e-mail me if anything needs to changed or anything else


Lead (Melody) Guitar
E|-------------------------------------------------------------------|
B|-------8-----------------9-----------------8---------------8-------|
G|-----8---8-------------8---8----(x2)-----8---8----(x2)---7---7-----|
D|--10-------10--(x2) 10-------10-------10-------10------9-------9---|
A|-------------------------------------------------------------------|
E|-------------------------------------------------------------------|

Repeat this throughout the song in the nessacary places. There are some places where 
guitar pauses so make sure you don't play in them.

Rthyem Guitar
E|-----------------------------------------|
B|-----------------------------------------|
G|-----------------------------------------|
D|-----------------------------------------|
A|-----------------------------------------|
E|--8----10--4-----6----7--10---13--15-----|

Repeat this through the song as need. There are also some places where this guitar 
along with the melody so watch out.
Suggest correction
comments
print report bad tab
5 comments total. Showing first comments.
+9 reply
Pete190 41 Jul 27, 2009 04:06 PM

Correction:

E|-------------------------------------------------------------------|
B|-------8-----------------9-----------------8---------------8-------|
G|-----8---8-------------8---8----(x2)-----8---8----(x2)---7---7-----|
D|--10-------10--(x2) 10-------10--------8-------8-------9-------9---|
A|-------------------------------------------------------------------|
E|-------------------------------------------------------------------|

-2 reply
redkingd 10 Mar 10, 2011 09:45 AM

good tab! is right

+1 reply
RavenKidSix 10 Jun 14, 2011 09:22 PM

The (x2) doesn't make sense.. You don't play the starting note on the second play through of each section..

guest
You may want to rate the tab now too:
select rating
Wanna post a correction for this tab? Suggest correction