Oops, an error
Loading. Please wait.

Circles Tab

version 5
version 5

Interactive

4,207 views 6 this week
no commentswrite comment
1 2 3 4 5
accurate
x 4
add to favorites
launch autoscroll
font size
0
reset
how to read this tab
guitar tuner
Tab Pro tools
  • play this tab
  • loop segment
  • change instrument
  • show fretboard
  • metronome
×
Best way to learn
"Circles"
Autoscroll
slow
fast
+/-
esc
set tempo
stop
Contributor
Difficulty
novice
Its not a very hard song and i tabbed all by EAR
and this tab is 100% CORRECT.


Heres the main part:

E|--------------------------------------------|
B|--------8---------8---------9---------9-----|
G|------8---8-----8---8-----8---8-----8---8---|
D|---10--------10--------10--------10---------|
A|--------------------------------------------|
E|--------------------------------------------|

E|--------------------------------------------|
B|--------8---------8---------8---------8-----|
G|------8---8-----8---8-----7---7-----7---7---|
D|----8---------8---------9---------9---------|
A|--------------------------------------------|
E|--------------------------------------------|

You repeat that through the whole song and make sure to pause at the moments when the 
pauses and then continue when the song does as well.


Heres the high part when they sing "I see me writing on this paper...":

E|---20---15---16-15---------16--15-----------------------------|
B|-------------------18-18----------18-16---18--16-15-----------|
G|-----------------------------------------------------17-17----|
D|--------------------------------------------------------------|
A|--------------------------------------------------------------|
E|--------------------------------------------------------------|

I hope it helps and you enjoy it.
Keep rocking \m/!
comments
print report bad tab
I want to post or [tab]
guest
You may want to rate the tab now too:
select rating
Please do not post tabs as comments. Select "correction" instead!