Oops, an error
Loading. Please wait.

City Bass Tab

10,162 views 3 this week
1 commentread comment
1 2 3 4 5
x 3
add to favorites
launch autoscroll
font size
0
reset
guitar tuner
Autoscroll
slow
fast
+/-
esc
set tempo
stop
Help us to improve Ultimate-Guitar.com Take our survey!
×
-------------------------------------------------------------------------------
			     City - Hollywood Undead
-------------------------------------------------------------------------------

Tabbed By : execution_666


Tuning: Standard (EAGD) or BEADG on a 5 string. This song can be played on both. 

00:24 - 00:37
G|----------------------------------------|
D|----------------------------------------|
A|-88--44-----66------88--44-----66-------|
E|--------44-----88----------44-----88----|

00:43 - 01:07
G|----------------------------------------|
D|----------------------------------------|
A|-88--44-----66------88--44-----66-------|
E|--------44-----88----------44-----88----|

01:15 - 01:25
G|----------------------------------------|
D|----------------------------------------|
A|-88--44-----66------88--44-----66-------|
E|--------44-----88----------44-----88----|

01:26 - 01:56
G|----------------------------------------|
D|----------------------------------------|
A|-88--44-----66------88--44-----66-------|
E|--------44-----88----------44-----88----|

02:03 - 02:16
G|----------------------------------------|
D|----------------------------------------|
A|-88--44-----66------88--44-----66-------|
E|--------44-----88----------44-----88----|

02:28 - 02:53
G|---------------------|
D|---------------------|
A|--88-----------------|
E|-----88--99--66------|

03:00 - 03:34
G|----------------------------------------|
D|----------------------------------------|
A|-88--44-----66------88--44-----66-------|
E|--------44-----88----------44-----88----|

It's just that. Rhythm is not hard at all.
Can be done on both 4 and 5 strings.
Any questions? Ask please.

Enjoy

| /  slide up
| \  slide down
| h  hammer-on
| p  pull-off
| ~  vibrato
| +  harmonic
| x  Mute note
===============================================================================
Suggest correction
Give kudos to tab author, rate the tab!
1 2 3 4 5
comments
print report bad tab
1 comment total.
0 reply
TMBassist 50 Jun 14, 2009 04:30 AM

Exact :D, Well Done :), get "Young" tabbed, the other one doesnt seem right.

guest
You may want to rate the tab now too:
select rating
Wanna post a correction for this tab? Suggest correction