Oops, an error
Loading. Please wait.

Coming Back Down Tab

version 3
version 3

Whole song

6,354 views 15 this week
1 commentread comment
1 2 3 4 5
excellent!
x 4
add to favorites
launch autoscroll
font size
0
reset
how to read this tab
guitar tuner
Autoscroll
slow
fast
+/-
esc
set tempo
stop
Help us to improve Ultimate-Guitar.com Take our survey!
×
Author
Difficulty
novice
-------------------------------------------------------------------------------
                             COMING BACK DOWN - Hollywood Undead
-------------------------------------------------------------------------------
Original tab by: welshmark96
Email: danieltjames@gmail.com

New version: Added chorus.
By: QuincyDK
kosterkont@hotmail.com
Update: Corrected a typo

Tuning:standard (EADGBe)

this is pretty much it for the whole song.

     G        D       A       Bm
e|---------------------------------------------------------------------------|
B|----3-------3-------3-------3----------------------------------------------|
G|--0---0---2---2---2---2---4---4--------------------------------------------|
D|--------0------------------------------------------------------------------|
A|----------------0-------2--------------------------------------------------|
E|3--------------------------------------------------------------------------|

Chorus:
e|---------------------------------------------------------------------------|
B|---------------------------------------------------------------------------|
G|---------------------------------------------------------------------------|
D|-----5---------12--------7----------9--------------------------------------|
A|-----5---------10--------5----------7--------------------------------------|
E|-----3---------10--------5----------7--------------------------------------|
Note 1: You can slide between the notes. On the original record this is what the 
guitarist does but it sounds nice this way too. Pick your favorite option.
Note 2: While the chorus is being played, the first part can still be heard. This means 
it's either an overdub or 2 guitars.



You could just play the chords too. It is what you want to do. (this replaces everything 
BUT the chorus!

    G (x4)   D (x4)   A (x4)   Bm (x4)
e|--3--------2--------0--------2---------------------------------------------|
B|--3--------3--------3--------3---------------------------------------------|
G|--0--------2--------2--------4---------------------------------------------|
D|--0--------0--------2--------4---------------------------------------------|
A|--2-----------------0--------2---------------------------------------------|
E|--3------------------------------------------------------------------------|
Suggest correction new What's this?
You can suggest a correction to this tab. Community and Mods will review your correction and vote to approve or reject it.
comments
print report bad tab
1 comment total.
0 reply
iancglaeser 12 wrote on August 3 2015, 01:50 am

its two guitarists most likley

guest
You may want to rate the tab now too:
select rating
Please do not post tabs as comments. Select "correction" instead!