Oops, an error
Loading. Please wait.

Dead Bite Bass Tab

4,226 views 3 this week
no commentswrite comment
1 2 3 4 5
please rate
add to favorites
launch autoscroll
font size
0
reset
guitar tuner
Autoscroll
slow
fast
+/-
esc
set tempo
stop
Help us to improve Ultimate-Guitar.com Take our survey!
×
Author
Originally in drop C
tuned to drop D

0:05
G|---------5-------------------------------5-----------------------|
D|-------------------------------------------------------------5---|
A|-3-----------3-3---3-3-----------3-----------3-3---3-3-----------|
D|-----------------------------------------------------------------|
   1 e + a 2 e + a 3 e + a 4 e + a 1 e + a 2 e + a 3 e + a 4 e + a

G|---------5-------------------------------------------------------|
D|-----------------------------------------------------------------|
A|-3-----------3-3---3-3-------------------------------------------|
D|---------------------------------5-----5-5---5-----5-5---5---5---|
   1 e + a 2 e + a 3 e + a 4 e + a 1 e + a 2 e + a 3 e + a 4 e + a

0:16
G|-------/-5-----------------------------/-5-----------------------|
D|-----------------------------------------------------------------|
A|-3-\-----------------------------3-\-----------------------------|
D|-----------------------------------------------------------------|
   1 e + a 2 e + a 3 e + a 4 e + a 1 e + a 2 e + a 3 e + a 4 e + a

G|-------/-5-------------------------------------------------------|
D|-----------------------------------------------------------------|
A|-3-\-------------------------------------------------------------|
D|---------------------------------5-----5-5---5-----5-5---5---5---|
   1 e + a 2 e + a 3 e + a 4 e + a 1 e + a 2 e + a 3 e + a 4 e + a

0:26
G|-----------------------------------------------------------------|
D|-------------------------------------------------------------5---|
A|-3---3-------3-3---3-3-------3---3---3-------3-3---3-3-----------|
D|-----------------------------------------------------------------|
   1 e + a 2 e + a 3 e + a 4 e + a 1 e + a 2 e + a 3 e + a 4 e + a

G|-----------------------------------------------------------------|
D|-----------------------------------------------------------------|
A|-3---3-------3-3---3-3-------3-----------------------------------|
D|---------------------------------5-----5-5---5-----5-5---5---5---|
   1 e + a 2 e + a 3 e + a 4 e + a 1 e + a 2 e + a 3 e + a 4 e + a

0:36
G|-----------------------------------------------------------------|
D|-------------------------------------------------------------5---|
A|-3---3-----------------------3---3---3---------------------------|
D|-----------------------------------------------------------------|
   1 e + a 2 e + a 3 e + a 4 e + a 1 e + a 2 e + a 3 e + a 4 e + a

G|-----------------------------------------------------------------|
D|-----------------------------------------------------------------|
A|-3---3-----------------------3-----------------------------------|
D|---------------------------------5-----5-5---5-----5-5---5-------|
   1 e + a 2 e + a 3 e + a 4 e + a 1 e + a 2 e + a 3 e + a 4 e + a

0:46
G|-----------------------------------------------------------------|
D|-------------------------------------------------------------5---|
A|-3---3-----------------------3---3---3---------------------------|
D|-----------------------------------------------------------------|
   1 e + a 2 e + a 3 e + a 4 e + a 1 e + a 2 e + a 3 e + a 4 e + a

G|-----------------------------------------------------------------|
D|-----------------------------------------------------------------|
A|-3---3-----------------------3-----------------------------------|
D|-----------------------------------------------------------------|
   1 e + a 2 e + a 3 e + a 4 e + a 1 e + a 2 e + a 3 e + a 4 e + a

0:56
G|------------------------------------------------------------------|
D|o-----------------------------------------------------------------|
A|o-3-------------------------------3-------------------------------|
D|------------------------------------------------------------------|
    1 e + a 2 e + a 3 e + a 4 e + a 1 e + a 2 e + a 3 e + a 4 e + a

G|------------------------------------------------------------------|
D|-----------------------------------------------------------------o|
A|-3---------------------------------------------------------------o|
D|---------------------------------5-----5-5---5-----5-5---5-5-5----|
   1 e + a 2 e + a 3 e + a 4 e + a 1 e + a 2 e + a 3 e + a 4 e + a

1:16
G|-----------------------------------------------------------------|
D|-----------------------------------------------------------------|
A|-3---------------------------------------------------------------|
D|-----------------------------------------------------------------|
   1 e + a 2 e + a 3 e + a 4 e + a 1 e + a 2 e + a 3 e + a 4 e + a

G|-----------------------------------------------------------------|
D|-----------------------------------------------------------------|
A|-----------------------------------------------------------------|
D|-----------------------------------------------------------------|
   1 e + a 2 e + a 3 e + a 4 e + a 1 e + a 2 e + a 3 e + a 4 e + a

1:25
G|-----------------------------------------------------------------|
D|-------------------------------------------------------------5---|
A|-3---3-------3-3---3-3-------3---3---3-------3-3---3-3-----------|
D|-----------------------------------------------------------------|
   1 e + a 2 e + a 3 e + a 4 e + a 1 e + a 2 e + a 3 e + a 4 e + a

G|-----------------------------------------------------------------|
D|-----------------------------------------------------------------|
A|-3---3-------3-3---3-3-------3-----------------------------------|
D|---------------------------------5-----5-5---5-----5-5---5---5---|
   1 e + a 2 e + a 3 e + a 4 e + a 1 e + a 2 e + a 3 e + a 4 e + a

1:35
G|-----------------------------------------------------------------|
D|-------------------------------------------------------------5---|
A|-3---3-----------------------3---3---3---------------------------|
D|-----------------------------------------------------------------|
   1 e + a 2 e + a 3 e + a 4 e + a 1 e + a 2 e + a 3 e + a 4 e + a

G|-----------------------------------------------------------------|
D|-----------------------------------------------------------------|
A|-3---3-----------------------3-----------------------------------|
D|---------------------------------5-----5-5---5-----5-5---5-------|
   1 e + a 2 e + a 3 e + a 4 e + a 1 e + a 2 e + a 3 e + a 4 e + a

1:46
G|-----------------------------------------------------------------|
D|-------------------------------------------------------------5---|
A|-3---3-----------------------3---3---3---------------------------|
D|-----------------------------------------------------------------|
   1 e + a 2 e + a 3 e + a 4 e + a 1 e + a 2 e + a 3 e + a 4 e + a

G|-----------------------------------------------------------------|
D|---------------------------------5-------------------------------|
A|-3---3-----------------------3-----------------------------------|
D|-----------------------------------------------------------------|
   1 e + a 2 e + a 3 e + a 4 e + a 1 e + a 2 e + a 3 e + a 4 e + a

1:56
G|------------------------------------------------------------------|
D|o-----------------------------------------------------------------|
A|o-3-------------------------------3-------------------------------|
D|------------------------------------------------------------------|
    1 e + a 2 e + a 3 e + a 4 e + a 1 e + a 2 e + a 3 e + a 4 e + a

G|------------------------------------------------------------------|
D|-----------------------------------------------------------------o|
A|-3---------------------------------------------------------------o|
D|---------------------------------5-----5-5---5-----5-5---5-5-5----|
   1 e + a 2 e + a 3 e + a 4 e + a 1 e + a 2 e + a 3 e + a 4 e + a

2:16
G|-----------------------------------------------------------------|
D|-----------------------------------------------------------------|
A|-3---------------------------------------------------------------|
D|-----------------------------------------------------------------|
   1 e + a 2 e + a 3 e + a 4 e + a 1 e + a 2 e + a 3 e + a 4 e + a

G|-----------------------------------------------------------------|
D|-----------------------------------------------------------------|
A|-----------------------------------------------------------------|
D|-----------------------------------------------------------------|
   1 e + a 2 e + a 3 e + a 4 e + a 1 e + a 2 e + a 3 e + a 4 e + a

2:26
G|-----------------------------------------------------------------|
D|-------------------------------------------------------------5---|
A|-3---3-------3-3---3-3-------3---3---3-------3-3---3-3-----------|
D|-----------------------------------------------------------------|
   1 e + a 2 e + a 3 e + a 4 e + a 1 e + a 2 e + a 3 e + a 4 e + a

G|-----------------------------------------------------------------|
D|-----------------------------------------------------------------|
A|-3---3-------3-3---3-3-------3-----------------------------------|
D|---------------------------------5-----5-5---5-----5-5---5---5---|
   1 e + a 2 e + a 3 e + a 4 e + a 1 e + a 2 e + a 3 e + a 4 e + a

2:36
G|-----------------------------------------------------------------|
D|-------------------------------------------------------------5---|
A|-3---3-----------------------3---3---3---------------------------|
D|-----------------------------------------------------------------|
   1 e + a 2 e + a 3 e + a 4 e + a 1 e + a 2 e + a 3 e + a 4 e + a

G|-----------------------------------------------------------------|
D|-----------------------------------------------------------------|
A|-3---3-----------------------3-----------------------------------|
D|---------------------------------5-----5-5---5-----5-5---5-------|
   1 e + a 2 e + a 3 e + a 4 e + a 1 e + a 2 e + a 3 e + a 4 e + a

2:46
G|-----------------------------------------------------------------|
D|-------------------------------------------------------------5---|
A|-3---3-----------------------3---3---3---------------------------|
D|-----------------------------------------------------------------|
   1 e + a 2 e + a 3 e + a 4 e + a 1 e + a 2 e + a 3 e + a 4 e + a

G|-----------------------------------------------------------------|
D|---------------------------------5-------------------------------|
A|-3---3-----------------------3-----------------------------------|
D|-----------------------------------------------------------------|
   1 e + a 2 e + a 3 e + a 4 e + a 1 e + a 2 e + a 3 e + a 4 e + a

2:56
G|------------------------------------------------------------------|
D|o-----------------------------------------------------------------|
A|o-3-------------------------------3-------------------------------|
D|------------------------------------------------------------------|
    1 e + a 2 e + a 3 e + a 4 e + a 1 e + a 2 e + a 3 e + a 4 e + a

G|------------------------------------------------------------------|
D|-----------------------------------------------------------------o|
A|-3---------------------------------------------------------------o|
D|---------------------------------5-----5-5---5-----5-5---5-5-5----|
   1 e + a 2 e + a 3 e + a 4 e + a 1 e + a 2 e + a 3 e + a 4 e + a

3:16
G|-----------------------------------------------------------------|
D|-----------------------------------------------------------------|
A|-3---------------------------------------------------------------|
D|-----------------------------------------------------------------|
   1 e + a 2 e + a 3 e + a 4 e + a 1 e + a 2 e + a 3 e + a 4 e + a

G|-----------------------------------------------------------------|
D|-----------------------------------------------------------------|
A|-----------------------------------------------------------------|
D|-----------------------------------------------------------------|
   1 e + a 2 e + a 3 e + a 4 e + a 1 e + a 2 e + a 3 e + a 4 e + a
Tabbed by Dave Vucko
Suggest correction
Give kudos to tab author, rate the tab!
1 2 3 4 5
comments
print report bad tab
guest
You may want to rate the tab now too:
select rating
Wanna post a correction for this tab? Suggest correction