Oops, an error
Loading. Please wait.

Dove And Gernade Tab

2,902 views 3 this week
1 commentread comment
1 2 3 4 5
2 more votes to show rating
add to favorites
launch autoscroll
font size
0
reset
how to read this tab
guitar tuner
Autoscroll
slow
fast
+/-
esc
set tempo
stop
Help us to improve Ultimate-Guitar.com Take our survey!
×
Author
Difficulty
novice
e----------------------------------------|
a----------------------------------------|
g----------------------------------------|
d--3-3-3--5-3----------------------------|
a--3-3-3--5-3----------------------------|
e--1-1-1--3-1----------------------------|

All the notes are eighth notes and the last power chord is sticato, which means quick =) 
you enjoy. and if you don't like it then make your own.
Suggest correction
Give kudos to tab author, rate the tab!
1 2 3 4 5
comments
print report bad tab
1 comment total.
0 reply
jordash7000 120 Dec 08, 2009 09:49 PM

I'm sorry I didn't add the Chrous, but here it is:
E-----------------------------

B-----------------------------

G--7--5--8--5-----------------

D--7--5--8--5-----------------

A--5--3--6--3-----------------

E-----------------------------

(play this when Duece is singing)

Also, the notes are whole notes, which mean four (4) beats =)

guest
You may want to rate the tab now too:
select rating
Wanna post a correction for this tab? Suggest correction