Oops, an error
Loading. Please wait.

Everywhere I Go Bass Tab

version 1
version 1

Whole song

Interactive

4,936 views 3 this week
no commentswrite comment
1 2 3 4 5
please rate
add to favorites
launch autoscroll
font size
0
reset
guitar tuner
Autoscroll
slow
fast
+/-
esc
set tempo
stop
Help us to improve Ultimate-Guitar.com Take our survey!
×
Author
Difficulty
Tuning
novice
D A D G B E
Everywhere I go
By: Hollywood Undead.

h Hammer On
p Pull off
/slide up
\slide down


Drop D.


Intro 
                 (Volume comes up after the 2nd time.)
G|--------------------------------------------------------|
D|--------------------------------------------------------|
A|--------------------------------------------------------|
D|-----5-----5-----5-----5-----5-----5-----5-----5p0------|X4

"Every where I go,.."

G|--------------------------------------------------------|
D|--------------------------------------------------------|
A|--------------------------------------------------------|
D|-----5-----5-----5-----5-----5-----5-----5-----5p0-5p0--|X3

G|--------------------------------------------------------|
D|--------------------------------------------------------|
A|--------------------------------------------------------|
D|-----5-----5-----5-----5-----5-----5-----5--------------|

"WAKE UP!..."
G|-----------------------------------5--7-----------------|
D|----------5~--------7~--------8~------------------------|
A|--------------------------------------------------------|
D|--------------------------------------------------------|X4

"Lets get this party started!..."

G|--------------------------------------------------------|
D|--------------------------------------------------------|
A|--------------------------------------------------------|
D|-----5-----5-----5-----5-----5-----5-----5-----5p0-5p0--|X4

"When I start drinking...."

G|-----------------------------------5--7-----------------|
D|----------5~--------7~--------8~------------------------|
A|--------------------------------------------------------|
D|--------------------------------------------------------|X2

"D-cups with extra filling..."

G|--------------------------------------------------------|
D|--------------------------------------------------------|
A|--------------------------------------------------------|
D|-----5-----5-----5-----5-----5-----5-----5-----5p0-5p0--|X1

"Calm down its just a hicky.."

G|-----------------------------------5--7-----------------|
D|----------5~--------7~--------8~------------------------|
A|--------------------------------------------------------|
D|--------------------------------------------------------|X3

"Buy beer or pay the rent.."

G|--------------------------------------------------------|
D|--------------------------------------------------------|
A|--------------------------------------------------------|
D|-----5-----5-----555---5-----5----(5)----55-------------|X1

"So I beat my meat,.."

G|-----------------------------------5--7-----------------|
D|----------5~--------7~--------8~------------------------|
A|--------------------------------------------------------|
D|--------------------------------------------------------|X1

"Lets get this party started,..."

G|--------------------------------------------------------|
D|--------------------------------------------------------|
A|--------------------------------------------------------|
D|-----5-----5-----5-----5-----5-----5-----5-----5p0-5p0--|X4

"Lets get this party jumping,..."

G|---------------------------|
D|---------------------------|
A|---------------------------|
D|-----7\0--00-44------------|x8

"Fuck a wrist band,..."

G|---------------------------|
D|---------------------------|
A|---------------------------|
D|-----7\0--00-44------------|x8

"Lets get this party started,"

G|--------------------------------------------------------|
D|--------------------------------------------------------|
A|--------------------------------------------------------|
D|-----5-----5-----5-----5-----5-----5-----5-----5p0-5p0--|X12
Suggest correction
Give kudos to tab author, rate the tab!
1 2 3 4 5
comments
print report bad tab
guest
You may want to rate the tab now too:
select rating
Please do not post tabs as comments. Select "correction" instead!