Oops, an error
Loading. Please wait.

Everywhere I Go Tab

version 2
version 2

Whole song

Interactive

11,986 views 3 this week
no commentswrite comment
1 2 3 4 5
2 more votes to show rating
add to favorites
launch autoscroll
font size
0
reset
how to read this tab
guitar tuner
Autoscroll
slow
fast
+/-
esc
set tempo
stop
Help us to improve Ultimate-Guitar.com Take our survey!
×
Author
----------------------------------------------------------------------------
                             Everywhere I go - Hollywood Undead
----------------------------------------------------------------------------

Tabbed by: Bassface01
Email: guneagleluke@charter.net

Tuning: Dropped D (eBGDAD)

Intro/ Chorus:
e|15-15-15-13--------------------------------------------------|
B|------------1515151515-16-16-16-13-1515151515-16-16-16-13-15-|
G|-------------------------------------------------------------|
D|-------------------------------------------------------------|
A|-------------------------------------------------------------|
D|-------------------------------------------------------------|
|
e|----------------------------------------|
B|15-15-----------------------------------|
G|------15-17-17-15-14--------------------|
D|---------------------1515151515---------|
A|----------------------------------------|
D|----------------------------------------|

A second Guitar plays this after the intro is played again and during the choruses
e|----------------------------------------|
B|----------------------------------------|
G|----------------------------------------|
D|----------------------------------------|
A|-5-5-5-55-5-5-5-55-5-5-5-55-5-5-5-55----|
D|-5-5-5-55-5-5-5-55-5-5-5-55-5-5-5-55----|
   x x x xx x x x xx x x x xx x x x xx

Verse:
This is the keyboard part made for guitar
e|----------------------------------------------------------|
B|----------------------------------------------------------|
G|----------------------------------------------------------|
D|5--------7--------8------10---12--------------------------|
A|5--------7--------8------10---12--------------------------|
D|5--------7--------8------10---12--------------------------|

During the second verse they play half the intro/chorus along with the keyboard part.

Break:
Keyboard plays this at the beginning
e|-15--------------------------------15----------------------|
B|-----------------------------------------------------------|
G|-----------------------------------------------------------|
D|-----------------------------------------------------------|
A|-----------------------------------------------------------|
E|-----------------------------------------------------------|

Then the second half of the intro is played ont he bass and guitar

Then one more chorus and the intro with Charlie Scene.




| /  slide up
| \  slide down
| h  hammer-on
| p  pull-off
| ~  vibrato
| +  harmonic
| x  Mute note
============================================================================
Suggest correction
Give kudos to tab author, rate the tab!
1 2 3 4 5
comments
print report bad tab
guest
You may want to rate the tab now too:
select rating
Wanna post a correction for this tab? Suggest correction