Oops, an error
Loading. Please wait.

Everywhere I Go Tab

version 3
version 3

Whole song

Interactive

5,310 views 6 this week
no commentswrite comment
1 2 3 4 5
excellent!
x 4
add to favorites
launch autoscroll
font size
0
reset
how to read this tab
guitar tuner
Tab Pro tools
  • play this tab
  • loop segment
  • change instrument
  • show fretboard
  • metronome
×
Best way to learn
"Everywhere I Go"
Autoscroll
slow
fast
+/-
esc
set tempo
stop
Contributor
Tuning- Drop C
 
Artist:Hollywood Undead
Song:Everywhere I Go 

I'm pretty sure that this is right. e-mail me if i'm missing anything or for 
incorrections--- garzonps05@gmail.com



Intro: 00:00 - 00:11
D|-15-15-15--13-------||--------------------||--------------------|
A|-------------15(10x)||16-16-16--13-15(10x)||16-16-16-13-15-15-15|
F|--------------------||--------------------||--------------------|
C|--------------------||--------------------||--------------------|
G|--------------------||--------------------||--------------------|
C|--------------------||--------------------||--------------------|
 |
D|--------------------------| 
A|--------------------------| 
F|--15-17-17-17--14-12(10x)-| 
C|--------------------------| 
G|--------------------------| 
C|--------------------------|

00:12 - 00:19
D|--15-15-15--13---------||---------------------||--------------------|
A|---------------15(10x)-||16-16-16--13-15(10x)-||16-16-16-13-15-15-15|
F|-----------------------||---------------------||--------------------| 
C|-----------------------||---------------------||--------------------|
G|-----------------------||---------------------||--------------------|
C|-----------------------||---------------------||--------------------|
 |
D|---------------------| 
A|---------------------| 
F|--15-17-17-17--14-12-| 
C|---------------------| 
G|---------------------| 
C|---------------------|

00:20 - 00:28
D|--15-15-15--13---------||---------------------||--------------------|
A|---------------15------||16-16-16--13-15------||16-16-16-13-15-15-15|
F|-----------------------||---------------------||--------------------| 
C|-----------------------||---------------------||--------------------|
G|-----------------------||---------------------||--------------------|
C|-----------------------||---------------------||--------------------|
 |
D|---------------------| 
A|---------------------| 
F|--15-17-17-17--14-12-| 
C|---------------------| 
G|---------------------| 
C|---------------------|

00:29 - 00:36
D|--15-15-15--13---------||---------------------||--------------------|
A|---------------15------||16-16-16--13-15------||16-16-16-13-15-15-15|
F|-----------------------||---------------------||--------------------| 
C|-----------------------||---------------------||--------------------|
G|-----------------------||---------------------||--------------------|
C|-----------------------||---------------------||--------------------|
 |
D|---------------------| 
A|---------------------| 
F|--15-17-17-17--14-12-| 
C|---------------------| 
G|---------------------| 
C|---------------------|

00:55 - 01:03
D|--15-15-15--13---------||---------------------||--------------------|
A|---------------15------||16-16-16--13-15------||16-16-16-13-15-15-15|
F|-----------------------||---------------------||--------------------| 
C|-----------------------||---------------------||--------------------|
G|-----------------------||---------------------||--------------------|
C|-----------------------||---------------------||--------------------|
 |
D|---------------------| 
A|---------------------| 
F|--15-17-17-17--14-12-| 
C|---------------------| 
G|---------------------| 
C|---------------------|

01:04 - 01:12
D|--15-15-15--13---------||---------------------||--------------------|
A|---------------15------||16-16-16--13-15------||16-16-16-13-15-15-15|
F|-----------------------||---------------------||--------------------| 
C|-----------------------||---------------------||--------------------|
G|-----------------------||---------------------||--------------------|
C|-----------------------||---------------------||--------------------|
 |
D|---------------------| 
A|---------------------| 
F|--15-17-17-17--14-12-| 
C|---------------------| 
G|---------------------| 
C|---------------------|

01:20 - 01:25
D|--15-15-15--13---------||---------------------|
A|---------------15(10x)-||16-16-16--13-15(10x)-|
F|-----------------------||---------------------| 
C|-----------------------||---------------------|
G|-----------------------||---------------------|
C|-----------------------||---------------------|

01:29 - 01:34
D|--15-15-15--13---------||---------------------|
A|---------------15(10x)-||16-16-16--13-15(10x)-|
F|-----------------------||---------------------| 
C|-----------------------||---------------------|
G|-----------------------||---------------------|
C|-----------------------||---------------------|


01:47 - 02:04
D|-15-15-15--13-------||--------------------||--------------------|
A|-------------15(10x)||16-16-16--13-15(10x)||16-16-16-13-15-15-15|
F|--------------------||--------------------||--------------------|
C|--------------------||--------------------||--------------------|
G|--------------------||--------------------||--------------------|
C|--------------------||--------------------||--------------------|
 |
D|--------------------------| 
A|--------------------------| 
F|--15-17-17-17--14-12(10x)-| 
C|--------------------------| 
G|--------------------------| 
C|--------------------------|

02:22 - 02:39
D|--------------------||---------------------| 3x
A|16-16-16-13-15-15-15||---------------------|
F|--------------------||--15-17-17-17--14-12-|
C|--------------------||---------------------|
G|--------------------||---------------------|
C|--------------------||---------------------|


02:40 - 02:47
D|-15-15-15--13-------||--------------------||--------------------|
A|-------------15(10x)||16-16-16--13-15-----||16-16-16-13-15-15-15|
F|--------------------||--------------------||--------------------|
C|--------------------||--------------------||--------------------|
G|--------------------||--------------------||--------------------|
C|--------------------||--------------------||--------------------|
 |
D|--------------------------| 
A|--------------------------| 
F|--15-17-17-17--14-12------| 
C|--------------------------| 
G|--------------------------| 
C|--------------------------|


02:48 - 02:56
D|-15-15-15--13-------||--------------------||--------------------|
A|-------------15(10x)||16-16-16--13-15-----||16-16-16-13-15-15-15|
F|--------------------||--------------------||--------------------|
C|--------------------||--------------------||--------------------|
G|--------------------||--------------------||--------------------|
C|--------------------||--------------------||--------------------|
 |
D|--------------------------| 
A|--------------------------| 
F|--15-17-17-17--14-12------| 
C|--------------------------| 
G|--------------------------| 
C|--------------------------|


02:57 - 03:05
D|-15-15-15--13-------||--------------------||--------------------|
A|-------------15(10x)||16-16-16--13-15-----||16-16-16-13-15-15-15|
F|--------------------||--------------------||--------------------|
C|--------------------||--------------------||--------------------|
G|--------------------||--------------------||--------------------|
C|--------------------||--------------------||--------------------|
 |
D|--------------------------| 
A|--------------------------| 
F|--15-17-17-17--14-12------| 
C|--------------------------| 
G|--------------------------| 
C|--------------------------|


03:06 - 03:13
D|-15-15-15--13-------||--------------------||--------------------|
A|-------------15(10x)||16-16-16--13-15-----||16-16-16-13-15-15-15|
F|--------------------||--------------------||--------------------|
C|--------------------||--------------------||--------------------|
G|--------------------||--------------------||--------------------|
C|--------------------||--------------------||--------------------|
 |
D|--------------------------| 
A|--------------------------| 
F|--15-17-17-17--14-12------| 
C|--------------------------| 
G|--------------------------| 
C|--------------------------|


03:14 - 03:22
D|-15-15-15--13-------||--------------------||--------------------|
A|-------------15(10x)||16-16-16--13-15(10x)||16-16-16-13-15-15-15|
F|--------------------||--------------------||--------------------|
C|--------------------||--------------------||--------------------|
G|--------------------||--------------------||--------------------|
C|--------------------||--------------------||--------------------|
 |
D|--------------------------| 
A|--------------------------| 
F|--15-17-17-17--14-12(10x)-| 
C|--------------------------| 
G|--------------------------| 
C|--------------------------|


03:23 - 03:33
D|-15-15-15--13-------||--------------------||--------------------|
A|-------------15(10x)||16-16-16--13-15(10x)||16-16-16-13-15-15-15|
F|--------------------||--------------------||--------------------|
C|--------------------||--------------------||--------------------|
G|--------------------||--------------------||--------------------|
C|--------------------||--------------------||--------------------|
 |
D|--------------------------| 
A|--------------------------| 
F|--15-17-17-17--14-12(10x)-| 
C|--------------------------| 
G|--------------------------| 
C|--------------------------|

comments
print report bad tab
I want to post or [tab]
guest
You may want to rate the tab now too:
select rating
Please do not post tabs as comments. Select "correction" instead!