Oops, an error
Loading. Please wait.

Hear Me Now Bass Tab

version 1
version 1

Whole song

Interactive

3,891 views 3 this week
1 commentread comment
1 2 3 4 5
accurate
x 3
add to favorites
launch autoscroll
font size
0
reset
guitar tuner
Autoscroll
slow
fast
+/-
esc
set tempo
stop
Help us to improve Ultimate-Guitar.com Take our survey!
×
Hey c:
So this song doesn't have Bass as far as I know, but it follows along with the rhythm 
guitar, and it's fun to play. Enjoy! n_n

Intro

"Now.."
G-------------------------|-------------------------|
D-------------------------|-------------------------|
A-------------------------|-------------------------|
E-------------------------|-------------------------|

"Now.."
G-------------------------|-------------------------|
D-------------------------|-------------------------|
A-------------------------|-------------------------|
E-------------------------|-------------------------|

"Now.."
G-------------------------|-------------------------|
D-------------------------|-------------------------|
A-------------------------|-7~~~~~~~~~~~~~~~~~~~~~~~|
E-4~~~~~~~~~~~~~~~~~~~~~~~|-------------------------|


"Now.."
G-------------------------|-------------------------|
D-------------------------|-------------------------|
A-------------------------|-------------------------|
E-7~~~~~~~~~~~~~~~~~~~~~~~|-2~~~~~14\~~~~~~~~~~~~~~~|

Verse


"As I walk through the valley..."
G-------------------------|-------------------------|
D-------------------------|-------------------------|
A-------------------------|-7~~~~~~~~~~~~~~~~~~~~~~~|
E-4~~~~~~~~~~~~~~~~~~~~~~~|-------------------------|

"I keep searching.."
G-------------------------|-------------------------|
D-------------------------|-------------------------|
A-------------------------|-------------------------|
E-7~~~~~~~~~~~~~~~~~~~~~~~|-2~~~~~~~~~~~~~~~~~~~~~~~|

"Now I'm stuck with this..."
G-------------------------|-------------------------|
D-------------------------|-------------------------|
A-------------------------|-7~~~~~~~~~~~~~~~~~~~~~~~|
E-4~~~~~~~~~~~~~~~~~~~~~~~|-------------------------|

"Where to go from here..."
G-------------------------|-------------------------|
D-------------------------|-------------------------|
A-------------------------|-------------------------|
E-7~~~~~~~~~~~~~~~~~~~~~~~|2~~~~~~~~~~~~~~~~~~~~~~~~|

"Will I try to have the will..."
G-------------------------|-------------------------|
D-------------------------|-------------------------|
A-------------------------|-7~~~~~~~~~~~~~~~~~~~~~~~|
E-4~~~~~~~~~~~~~~~~~~~~~~~|-------------------------|

"Blow it to the ground..."
G-------------------------|-------------------------|
D-------------------------|-------------------------|
A-------------------------|-------------------------|
E-7~~~~~~~~~~~~~~~~~~~~~~~|-2~~~~~~~~~~~~~~~~~~~~~~~|

Chorus

"Where'd you go?...."
G-------------------------|-------------------------|
D-------------------------|-------------------------|
A-------------------------|-7~~~~~~~~~~~~~~~~~~~~~~~|
E-4~~~~~~~~~~~~~~~~~~~~~~~|-------------------------|

"Can you hear me now?..."
G-------------------------|-------------------------|
D-------------------------|-------------------------|
A-------------------------|-------------------------|
E-7~~~~~~~~~~~~~~~~~~~~~~~|-2~~~~~~~~~~~~~~~~~~~~~~~|

"There's no light....""
G-------------------------|-------------------------|
D-------------------------|-------------------------|
A-------------------------|-7~~~~~~~~~~~~~~~~~~~~~~~|
E-4~~~~~~~~~~~~~~~~~~~~~~~|-------------------------|

"Can you hear me now?..."                  "Hear me"
G-------------------------|-------------------------|
D-------------------------|-------------------------|
A-------------------------|-------------------------|
E-7~~~~~~~~~~~~~~~~~~~~~~~|-2~~~~~~~~~~~~~~~~~~~~~~~|

Break off 1

"NOW!"
G-------------------------|-------------------------|
D-------------------------|-------------------------|
A-------------------------|-------------------------|
E-------------------------|-------------------------|

Verse 2

"How long can I keep pretending to be.."
G-------------------------|-------------------------|
D-------------------------|-------------------------|
A-------------------------|-7~~~~~~~~~~~~~~~~~~~~~~~|
E-4~~~~~~~~~~~~~~~~~~~~~~~|-------------------------|

"Heaven'll open up..."
G-------------------------|-------------------------|
D-------------------------|-------------------------|
A-------------------------|-------------------------|
E-7~~~~~~~~~~~~~~~~~~~~~~~|2~~~~~~~~~~~~~~~~~~~~~~~~|

"Walking these streets..."
G-------------------------|-------------------------|
D-------------------------|-------------------------|
A-------------------------|-7~~~~~~~~~~~~~~~~~~~~~~~|
E-4~~~~~~~~~~~~~~~~~~~~~~~|-------------------------|

"Lend him a hand...."
G-------------------------|-------------------------|
D-------------------------|-------------------------|
A-------------------------|-------------------------|
E-7~~~~~~~~~~~~~~~~~~~~~~~|-2~~~~~~~~~~~~~~~~~~~~~~~|

"So scared to dream
..."
G-------------------------|-------------------------|
D-------------------------|-------------------------|
A-------------------------|-7~~~~~~~~~~~~~~~~~~~~~~~|
E-4~~~~~~~~~~~~~~~~~~~~~~~|-------------------------|

"Quickly we forget.."
G-------------------------|-------------------------|
D-------------------------|-------------------------|
A-------------------------|-------------------------|
E-7~~~~~~~~~~~~~~~~~~~~~~~|2~~~~~~~~~~~~~~~~~~~~~~~~|

Break off 2

G-------------------------|-------------------------|
D-------------------------|-------------------------|
A-------------------------|-------------------------|
E-------------------------|-------------------------|


Chorus

"Where'd you go?...."
G-------------------------|-------------------------|
D-------------------------|-------------------------|
A-------------------------|-7~~~~~~~~~~~~~~~~~~~~~~~|
E-4~~~~~~~~~~~~~~~~~~~~~~~|-------------------------|

"Can you hear me now?..."
G-------------------------|-------------------------|
D-------------------------|-------------------------|
A-------------------------|-------------------------|
E-7~~~~~~~~~~~~~~~~~~~~~~~|-2~~~~~~~~~~~~~~~~~~~~~~~|

"There's no light....""
G-------------------------|-------------------------|
D-------------------------|-------------------------|
A-------------------------|-7~~~~~~~~~~~~~~~~~~~~~~~|
E-4~~~~~~~~~~~~~~~~~~~~~~~|-------------------------|

"Can you hear me now?..."                  "Hear me"
G-------------------------|-------------------------|
D-------------------------|-------------------------|
A-------------------------|-------------------------|
E-7~~~~~~~~~~~~~~~~~~~~~~~|-2~~~~~~~~~~~~~~~~~~~~~~~|

Interlude

"Look into my eyes..."
G-------------------------|-------------------------|
D-------------------------|-------------------------|
A-------------------------|-7~~~~~~~~~~~~~~~~~~~~~~~|
E-9~~~~~~~~~~~~~~~~~~~~~~~|-------------------------|

"Take another look around me..."
G-------------------------|-------------------------|
D-------------------------|-------------------------|
A-------------------------|-7~~~~~~~~~~~~~~~~~~~~~~~|
E-9~~~~~~~~~~~~~~~~~~~~~~~|-------------------------|

Bridge

Now..."
G-------------------------|-------------------------|
D-------------------------|-------------------------|
A-------------------------|-------------------------|
E-------------------------|-------------------------|

"Now.."
G-------------------------|-------------------------|
D-------------------------|-------------------------|
A-------------------------|-------------------------|
E-7~~~~~~~~~~~~~~~~~~~~~~~|-2~~~~~14\~~~~~~~~~~~~~~~|

Chorus

"Where'd you go?...."
G-------------------------|-------------------------|
D-------------------------|-------------------------|
A-------------------------|-7~~~~~~~~~~~~~~~~~~~~~~~|
E-4~~~~~~~~~~~~~~~~~~~~~~~|-------------------------|

"Can you hear me now?..."
G-------------------------|-------------------------|
D-------------------------|-------------------------|
A-------------------------|-------------------------|
E-7~~~~~~~~~~~~~~~~~~~~~~~|-2~~~~~~~~~~~~~~~~~~~~~~~|

"There's no light....""
G-------------------------|-------------------------|
D-------------------------|-------------------------|
A-------------------------|-7~~~~~~~~~~~~~~~~~~~~~~~|
E-4~~~~~~~~~~~~~~~~~~~~~~~|-------------------------|

"Can you hear me now?..."                  "Hear me"
G-------------------------|-------------------------|
D-------------------------|-------------------------|
A-------------------------|-------------------------|
E-7~~~~~~~~~~~~~~~~~~~~~~~|-2~~~~~~~~~~~~~~~~~~~~~~~|

"NOW!"
G-------------------------|-------------------------|
D-------------------------|-------------------------|
A-------------------------|-------------------------|
E-------------------------|-------------------------|
comments
We did not receive enough feedback on this tab! Please rate:
print report bad tab
1 2 3 4 5
1 comment total.
+1 reply
toddyV 600 wrote on May 25 2012, 05:36 am

dude no offence that was written in drop C not standard the rifs are:

G|---------| G|----|
D|---------| AND D|----|
A|--3~--5~-| A|--3~|
E|0~--3~---| E|5~--|

I want to post or [tab]
guest
You may want to rate the tab now too:
select rating
Please do not post tabs as comments. Select "correction" instead!