Oops, an error
Loading. Please wait.

Hear Me Now Tab

version 1
version 1

Whole song

Interactive

27,684 views 15 this week
4 commentsread comments
1 2 3 4 5
x 5
add to favorites
launch autoscroll
font size
0
reset
how to read this tab
guitar tuner
Autoscroll
slow
fast
+/-
esc
set tempo
stop
Help us to improve Ultimate-Guitar.com Take our survey!
×
Tuning
D A D G B E
Hollywood undead hear me now 
Not sure about the intro so u guys can let me know if it’s wrong

Drop D (Dadgbe)
Intro part1
|2-2---2---2---2---2---2---2---2-------------|
|----2---3---5-------5---3---2---2p3---------|
|----------------2---------------------------|
|--------------------------------------------|  
|--------------------------------------------|
|--------------------------------------------|
Intro until verse

Verse part 2
|2---------5----0----------------------------|
|2—---3----5----0----------------------------|
|2----5----5----0----------------------------|
|-----5--------------------------------------|
|--------------------------------------------|
|--------------------------------------------|

find out the strum ur self;)

chorus: same as verse;)
|2---------5----0----------------------------|
|2—---3----5----0----------------------------|
|2----5----5----0----------------------------|
|-----5--------------------------------------|
|--------------------------------------------|
|--------------------------------------------|
Suggest correction
comments
print report bad tab
4 comments total. Showing first comments.
+2 reply
workipodd 10 Jan 02, 2011 12:58 PM

the tab is upside down besides that its okay

0 reply
syntheticocean 220 Feb 10, 2011 02:50 PM

lol upside down tabs make me laugh so hard.

0 reply
syntheticocean 220 Feb 10, 2011 02:55 PM

|--------------------------------------------|
|--------------------------------------------|
|--------------------------------------------|
|----------------2---------------------------|
|----2---3---5-------5---3---2---2h3---------|
|2-2---2---2---2---2---2---2---2-------------|
Intro until verse

Verse part 2
|--------------------------------------------|
|-—------------------------------------------|
|-----5--------------------------------------|
|2----5----5----0----------------------------|
|2----3----5----0----------------------------|
|2---------5----0----------------------------|

find out the strum ur self;)

chorus: same as verse;)
|--------------------------------------------|
|-—------------------------------------------|
|-----5--------------------------------------|
|2----5----5----0----------------------------|
|2----3----5----0----------------------------|
|2---------5----0----------------------------|

guest
You may want to rate the tab now too:
select rating
Wanna post a correction for this tab? Suggest correction